» » »

Gavin James - The Book Of Love Tabs

Artists:  A B C D E F G H I J K L M N O P Q R S T U V W X Y Z # 

The Book Of Love Tabs

(ver. 2) Click to play this song!
Gavin James
 Rating:
4/5 (4 votes)

 The Book Of Love lessons Tabs too difficult? Try these video lessons and learn fast
 
                Capo 5

Keep playing this throughout the song:
e|-------------------------------------------------------|
B|-------------0h1-1-0-1~-----0----0h1-1-0-1~------------|
G|-----------0-0---0---2~-0h2-2--0-0---0---2~-2p0-0------|
D|-------------------------------------------------------|
A|-------------------------------------------------------|
E|-3-3-3-3-3---------------------3----------------3-2-0--|

e|-------------------------------------------------------|
B|---0h1-1-0-1~-----0------------------------------------|
G|-0-0---0---2~-0h2-2--0-0h2-2-2/4-2-0-0---0---0---0---0-|
D|-------------------------------------------------------|
A|---------------------3---------------------------------|
E|---------------------------------------3---3---3---3---|

            
Submit corrections


        The Book Of Love lessons Hard to play? Try these video lessons and learn fast The Book Of Love lessons
        
↑ Back to top | Tablatures and chords for acoustic guitar and electric guitar, ukulele, drums are parodies/interpretations of the original songs. You may use it for private study, scholarship, research or language learning purposes only