» » »

Gavin James - Nervous Acoustic intro Tabs

Artists:  A B C D E F G H I J K L M N O P Q R S T U V W X Y Z # 

Nervous Acoustic intro Tabs

(ver. 2) Click to play this song!
Gavin James
 Rating:
4.2/5 (30 votes)

 Nervous Acoustic intro lessons Tabs too difficult? Try these video lessons and learn fast
 
                Intro]
 
e|----------3--0h2--0-----0----------------------------------0--------0-----------------|
B|-------0-------------3-----0-------------------------0--3-----3--3-----0--------------|
G|--0h2----------------------------2-----0-----0--0h2-----------------------------------|
D|-------------0------------------------------------------------------------------------|
A|---------------------------3--3-----3-----3----------------3--------------------------|
E|--3---------------------------------------------3----------------------3--------------|

e|----------------------3--0h2--0-----0------------------------------------------------------|
B|-----0-------------0-------------3-----0----------------0--1--0--1--0--1--0----------------|
G|-----------2--0h2-----------------------------2----0h2-----------------------2p0--2--0-----|
D|-------------------------0-----------------------------------------------------------------|
A|---------------------------------------3--3-----3-------------3-----------3----------------|
E|--3-----3--2--3----------------------------------------------------------------------3--2--|            
Submit corrections


        Nervous Acoustic intro lessons Hard to play? Try these video lessons and learn fast Nervous Acoustic intro lessons
        
↑ Back to top | Tablatures and chords for acoustic guitar and electric guitar, ukulele, drums are parodies/interpretations of the original songs. You may use it for private study, scholarship, research or language learning purposes only