Home » G » Gates Gareth »

Gates Gareth - Marrow Tabs

Artists:  A B C D E F G H I J K L M N O P Q R S T U V W X Y Z # 

Marrow Tabs

(ver. 1) Click to play this song!
Gates Gareth
Tuning: Half-step down

eb|-----------------------------------------------------------------|
Bb|-----------------------------------------------------------------|
Gb|-----0-------0-------0-------0-------0-------0-------0-------0---| x2
Db|---5---5---5---5---5---5---5---5---5---5---5---5---5---5---5---5-|
Ab|-3-------3-------3-------5-------2-------2-----------------------|
Eb|-------------------------------------------------3-------2-------|

eb|-----------------------------------------------------------------|
Bb|-----------------------------------------------------------------|
Gb|-----0-------0-------0-------0-------0-------0-------0-------0---| x2
Db|---5---5---5---5---5---5---5---5---5---5---5---5---5---5---5---5-|
Ab|-3-------3-------3-------5---------------------------------------|
Eb|---------------------------------3-------3-------2-------0-------|

eb|-----------------------------------------------------------------|
Bb|-----0-------0-------0-------0-------0-------0-------0-------0---|
Gb|-------0-------0-------0-------0-------0-------0-------0-------0-| x2
Db|---5-------5-------5-------5-------5-------5-------5-------5-----|
Ab|-3-------3-------3-------5-------2-------2-----------------------|
Eb|-------------------------------------------------3-------2-------| 

eb|-----------------------------------------------------------------|
Bb|-----0-------0-------0-------0-------0-------0-------0-------0---|
Gb|-------0-------0-------0-------0-------0-------0-------0-------0-| x2
Db|---5-------5-------5-------5-------5-------5-------5-------5-----|
Ab|-3-------3-------3-------5---------------------------------------|
Eb|---------------------------------3-------3-------2-------0-------| 

eb|----------------|
Bb|----------------|
Gb|----------------|
Db|----------------|
Ab|-3--------------|
Eb|----------------|
            
Submit corrections

↑ Back to top | Tablatures and chords for acoustic guitar and electric guitar, ukulele, drums are parodies/interpretations of the original songs. You may use it for private study, scholarship, research or language learning purposes only