Home » G » Gary Valenciano »

Gary Valenciano - Pasko Na Sinta Ko Tabs

Artists:  A B C D E F G H I J K L M N O P Q R S T U V W X Y Z # 

Pasko Na Sinta Ko Tabs

(ver. 2) Click to play this song!
Gary Valenciano
E|-----------------0--1--3--------|
B|--------1-----------------------|
G|--0--0--------0-----------------|
D|-----------2-----------------0--|
A|--------3-----------------2-----|
E|-----------------------3--------|
      C          G
Pasko na, sinta ko


E|--------------3--1--0--1--------|
B|--0-----------------------------|
G|-----3-----3--------------------|
D|--------3--------------------3--|
A|-----1--------------------3-----|
E|-----------------------1--------|
   Bb          F
Hanap-hanap kita


E|--------------1--0-----0--------|
B|--------------------3-----------|
G|--2--1-----------------------0--|
D|-----------3--------------2-----|
A|--------3--------------3--------|
E|-----1--------------------------|
   Fm         C
Bakit magtatampo

E|-----------------------|
B|--------1--3--3--------|
G|--0--2-----------------|
D|-----0--------------0--|
A|-----------------2-----|
E|--------------3--------|
  Dm7   G
Iniwan ako


E|-----------------0--1--3--------|
B|--------1-----------------------|
G|--0--0--------0-----------------|
D|-----------2-----------------0--|
A|--------3-----------------2-----|
E|-----------------------3--------|
       C      G
Kung mawawala ka


E|--------------3--1--0--1--------|
B|--0-----------------------------|
G|-----3-----3--------------------|
D|--------3--------------------3--|
A|-----1--------------------3-----|
E|-----------------------1--------|
   Bb            F
Sa piling ko sinta


E|--------------1--0-----0--------|
B|--------------------3-----------|
G|--2--1-----------------------0--|
D|-----------3--------------2-----|
A|--------3--------------3--------|
E|-----1--------------------------|
   Fm        C
Paano ang Pasko


E|--------------------------0-----0--|
B|--------3--0--1--------1-----1--1--|
G|--0--2--------------0-----------3--|
D|-----0-----------2--------------2--|
A|--------------3-----------------3--|
E|-----------------------------------|
 Dm7-G  C
Inulila mo

Chorus:

E|-----5--5--3--------0--1--3--------0--------------|
B|--1-----------------------------------3--1--------|
G|-----------------------------------------------2--|
D|-----------------5--------------2-----------2-----|
A|--------------5--------------2-----------0--------|
E|-----1-----3--------------0-----------------------|
   F      G         Em  Am
Sayang sinta ang sinumpaan


E|-----0--1--0--------0--1--3-----------0--|
B|--3-----------3--3-----------------1--1--|
G|--------------------------------0-----3--|
D|--------0--------------------2--------2--|
A|--------------------------3-----------3--|
E|-----------------3-----------------------|
      Dm7     G      C - C7
At pagtitinginang tunay


E|-----5--5--3--------0--1--3--------0--------------|
B|--1-----------------------------------3--1--------|
G|-----------------------------------------------2--|
D|-----------------5--------------2-----------2-----|
A|--------------5--------------2-----------0--------|
E|-----1-----3--------------0-----------------------|
  F      G        Em       Am
Nais mo bang kalimutang ganap


E|--------------------0-----3--------------3--3--|
B|--1--0-----0--1--3-----3--------------3-----3--|
G|--------2--------------------------4--------4--|
D|--------0-----------------------5-----------5--|
A|-----------------------------5--------------5--|
E|--------------------------3-----------------3--|
     Dm7               G
Ang ating suyuan at galak


E|-----------------0--1--3--------|
B|--------1-----------------------|
G|--0--0--------0-----------------|
D|-----------2-----------------0--|
A|--------3-----------------2-----|
E|-----------------------3--------|
        C     G
Kung mawawala ka


E|--------------3--1--0--1--------|
B|--0-----------------------------|
G|-----3-----3--------------------|
D|--------3--------------------3--|
A|-----1--------------------3-----|
E|-----------------------1--------|
   Bb           F
sa piling ko sinta


E|--------------1--0-----0--------|
B|--------------------3-----------|
G|--2--1-----------------------0--|
D|-----------3--------------2-----|
A|--------3--------------3--------|
E|-----1--------------------------|
    Fm        C
Paano ang Paskong


E|--------------------------0-----0--|
B|--------3--0--1--------1-----1--1--|
G|--0--2--------------0-----------3--|
D|-----0-----------2--------------2--|
A|--------------3-----------------3--|
E|-----------------------------------|
 Dm7  G     C
Alay ko sa'yo


Repeat Chorus.


E|-----------------0--1--3--------|
B|--------1-----------------------|
G|--0--0--------0-----------------|
D|-----------2-----------------0--|
A|--------3-----------------2-----|
E|-----------------------3--------|
       C      G
Kung mawawala ka


E|--------------3--1--0--1--------|
B|--0-----------------------------|
G|-----3-----3--------------------|
D|--------3--------------------3--|
A|-----1--------------------3-----|
E|-----------------------1--------|
   Bb           F
Sa piling ko sinta


E|--------------1--0-----0--------|
B|--------------------3-----------|
G|--2--1-----------------------0--|
D|-----------3--------------2-----|
A|--------3--------------3--------|
E|-----1--------------------------|
   Fm         C
Paano ang paskong


E|----------------------------------0-----0--|
B|----3--------3--3--0--1--------1-----1--1--|
G|----------------------------0-----------0--|
D|----------5--------------2--------------2--|
A|-------5--------------3-----------------3--|
E|----3--------------------------------------|
  G        C
Alay ko sa'yo            
Submit corrections

↑ Back to top | Tablatures and chords for acoustic guitar and electric guitar, ukulele, drums are parodies/interpretations of the original songs. You may use it for private study, scholarship, research or language learning purposes only