» » »

Gary Clark Jr - Please Come Home Tabs

Artists:  A B C D E F G H I J K L M N O P Q R S T U V W X Y Z # 

Please Come Home Tabs

(ver. 1) Click to play this song!
Gary Clark Jr
 Rating:
4.3/5 (12 votes)

 Please Come Home  lessons Tabs too difficult? Try these video lessons and learn fast
 
                [1:50]

e|---------------------------------------------------------------------------|
B|------6-8b10--8b10~---------6-8b10-8b10-8p6-----------6-6v-----------------|
G|--5-7-------------------5-7-----------------7-------5-----------8-5--------|
D|--------------------------------------------------------------------8-7--5-|
A|-------------------------------------------------------------------------5-|
E|---------------------------------------------------------------------------|


[2:09]

e|---------------------------------------------------------------------------|
B|-----6---8b10--8b10--6--8----6-6v---6-----------6--------------------------|
G|-5-7----------------------7-----------8-5----------------------------------|
D|-------------------------------------------8b9----8b9--8b10--7-------------|
A|--------------------------------------------------------------8------------|
E|---------------------------------------------------------------------------|


[2:16]

           hold bend, pick twice
e|---------------------------------------------------------------------8v-6-8|
B|------6--8b10-10-10----------6--8b10-6--8v-------8-----------------6-------|
G|--5h7--------------------5h7-----------------7/9-----5---7-----5/7---------|
D|----------------------------------------------------------7----------------|
A|---------------------------------------------------------------------------|
E|---------------------------------------------------------------------------|


[2:24]

e|--3/5-6-----------8v--5-6------------8----------------------------8---5-6--|
B|----------8---6------------8b10r8b10--6------8b10r8p6-------5h5------------|
G|------------7----------------------------7------------7-----5--------------|
D|---------------------------------------------------------------------------|
A|---------------------------------------------------------------------------|
E|---------------------------------------------------------------------------|
2:33
e|------8-----------8b10--8-6--------------8v--6-8---8-----8-----------------|
B|---8b10-8--6-----------------8b10r8b10-------------8b10----6v-8------------|
G|--------------7-------------------------------------------------7----------|
D|---------------------------------------------------------------------------|
A|---------------------------------------------------------------------------|
E|---------------------------------------------------------------------------|


[2:42]

           slow bend
e|---------------------------------------------------------------------------|
B|------6--8b10-----6----4b5--6-----------6--4--------------6----------------|
G|-5--7---------------5---------5---3h5-5-------5--3b4-3b4-----3b4-3b4--2h3--|
D|--------------------------------------------------------------------------3|
A|---------------------------------------------------------------------------|
E|---------------------------------------------------------------------------|


[2:50]

e|---------------------------------------------------------------------------|
B|--------6-4b5-6--------------8----------8-----------8----------8/13-13-13--|
G|-3h5-5----------5----7b8r7b8---7b8-7b8-----7b8-7b8----7b8-7b8--------------|
D|---------------------------------------------------------------------------|
A|---------------------------------------------------------------------------|
E|---------------------------------------------------------------------------|


[2:56]                       [3:00]
                 x5
e||---------------||----------8/13-13--------------13------------13---|
B||--------13-----||------------------13----16b17-----13---16b17----13|
G||--10b11--------|| -------------------------------------------------|
D||---------------||--------------------------------------------------|
A||---------------||--------------------------------------------------|
E||---------------||--------------------------------------------------|

e|--------------13--------------------------------13-------------------------|
B|-16-13-----13----16--------13-------13-------13-----16---------------------|
G|--------15-----------15b16----15b16----15h16------------15b16-15-13----13--|
D|--------------------------------------------------------------------15-----|
A|---------------------------------------------------------------------------|
E|---------------------------------------------------------------------------|


                             [3:07]
                                                         
e|---------------------------------------------------------------------------|
B|-----13------------------------13h15-13-15-13h15--13--15-------------------|
G|--15----13---------------------14----14-14-14-----14-----14---13\12--10v---|
D|-----------15-13-----------------------------------------14----------------|
A|-----------------15-14-13--------------------------------------------------|
E|---------------------------------------------------------------------------|

                              real fast
e|---------------------------------------------------------------------------|
B|-10h13\0--------13h15------------------------------------------------------|
G|-10-------------14---------12h14p12h14p12----------------------------------|
D|-----------------------15-------------------15-12--------------------------|
A|---------------------------------------------------15-12-------------------|
E|---------------------------------------------------------------------------|


[3:17]

e|-----13-13v-13-----------------13-------------13------------------------13-|
B|--13-----------16-13--------13----16-------13----16--------13--------13----|
G|----------------------15b16----------15b16-----------15b16-----15b16-------|
D|---------------------------------------------------------------------------|
A|---------------------------------------------------------------------------|
E|---------------------------------------------------------------------------|

                                                         hold bend pick twice
e|---------------------------------------------------------13--17b18-18-18---|
B|-16--------13------------------------13--13/0------13-16-------------------|
G|-----15b16-----15b16-15-13-----13-15-----13/0------------------------------|
D|----------------------------15---------------------------------------------|
A|---------------------------------------------------------------------------|
E|---------------------------------------------------------------------------|


e|--------13--15b17-15b17-13-15v-13b--15b17-----13-------13----13--- 13------|
B|--13-16-----------------------------------16b----16b---16b17-16b17-16b17---|
G|---------------------------------------------------------------------------|
D|---------------------------------------------------------------------------|
A|---------------------------------------------------------------------------|
E|---------------------------------------------------------------------------|
                                                          several times until in 3:34             
 
[3:34]

strum these all real fast. 

e|---6-6-6-6-----3-1-3-1-----6-6-6-6----8--8--8--8-------10-8--8--8-----|
B|---6-8-6-8-----1-1-1-1-----8-8-8-8----10-8--10-8-------8--8--10-8-----|
G|---7-7-7-7-----2-2-2-2-----7-7-7-7----9--9--9--9-------9--9--9--9-----|
D|---8-8-8-8-----3-3-3-3-----8-8-8-8----10-10-10-10------10-10-10-10----|
A|---x-x-x-x-----x-x-x-x-----x-x-x-x----x--x--x--x-------x--x--x--x-----|
E|---x-x-x-x-----x-x-x-x-----x-x-x-x----x--x--x--x-------x--x--x--x-----|


[4:06]

    (strum until 4:13)
e|--13-------------------13b--13-13------13---------13---------13-13--17b19--|
B|--13-------------------13b---------16b----13--16b----13--16b---------------|
G|---------------------------------------------------------------------------|
D|---------------------------------------------------------------------------|
A|---------------------------------------------------------------------------|
E|---------------------------------------------------------------------------|


[4:17]                                                   [4:22]

e|-17b--13-----17b19-17b--13-----17b19-17b--13---------13v---13--------------|
B|---------13----------------13----------------13--16-----------16-13---15b16|
G|---------------------------------------------------------------------------|
D|---------------------------------------------------------------------------|
A|---------------------------------------------------------------------------|
E|---------------------------------------------------------------------------|

e|-----13--------------------------13--15b17--15b17--13--15-----13-----15b16-|
B|--13-----------------------13-16--------------------------15-----13--------|
G|--------15b--15p13---------------------------------------------------------|
D|-------------------15v-----------------------------------------------------|
A|---------------------------------------------------------------------------|
E|---------------------------------------------------------------------------| 


[4:28]

e|-13--15----17-17b19-16b17--13-----------13---------------------------------|
B|--------13--------------------13---16b------16b17--16--13--15---13---\0----|
G|----------------------------------------------------------------12h14\0----|
D|---------------------------------------------------------------------------|
A|---------------------------------------------------------------------------|
E|---------------------------------------------------------------------------| 

e|----------13--15b16--13--13---13--13--13-----------------------------------|
B|--13--16-----------------16b--16b-16b-16b-16b--13---13------16b17----------|
G|-----------------------------------------------14------14v-----------------|
D|-----------------------------------------------15--------------------------|
A|---------------------------------------------------------------------------|
E|---------------------------------------------------------------------------|            
Submit corrections


        Please Come Home  lessons Hard to play? Try these video lessons and learn fast Please Come Home  lessons
        
↑ Back to top | Tablatures and chords for acoustic guitar and electric guitar, ukulele, drums are parodies/interpretations of the original songs. You may use it for private study, scholarship, research or language learning purposes only