Home » G » Gary Clark Jr »

Gary Clark Jr - If You Love Me Like Yo Say Third Stone From Tabs

Artists:  A B C D E F G H I J K L M N O P Q R S T U V W X Y Z # 

If You Love Me Like Yo Say Third Stone From Tabs

(ver. 1) Click to play this song!
Gary Clark Jr
 Rating:
4/5 (4 votes)
                The main riff from 'If you love me like you say' (Inspired by third stone from the 
sun by Jimi Hendrix)

(/) Slide Up  (\) Slide Down  (h) Hammer On  (p) Pull Off  (b) Bend (r) Release (v) Vibrato

Stave 1:

E|----------------------------------------------------------------------------|
B|----------------------------------------------------------------------------|
G|----------------------------------------------------------------------------|
D|----2--4------/6v----6-4-2-/4-------2----------------------------------/4-2-|
A|--2-4----------------------------2-h4---------/5-4-2-4------2------/4-2-----|
E|--------------------------------------0-----------------2-h4--0-------------|


E|---------------------------------------------------------------------------|
B|---------------------------------------------------------------------------|
G|---------------------------------------------------------------------------|
D|-------2----/6v----6-4-2-/4-------2----------------------------------/4-2--|
A|--2-h4------------------------2-h4---------/5-4-2-4------2------/4-2-------|
E|-----------------------------------0-----------------2-h4--0---------------|

Best played hard, aggressively and with lots of fuzz!
            
Submit corrections

↑ Back to top | Tablatures and chords for acoustic guitar and electric guitar, ukulele, drums are parodies/interpretations of the original songs. You may use it for private study, scholarship, research or language learning purposes only