» » »

Gary Clark Jr - Cold Blooded Live Bass

Artists:  A B C D E F G H I J K L M N O P Q R S T U V W X Y Z # 

Cold Blooded Live Bass

(ver. 1) Click to play this song!
Gary Clark Jr
 Rating:
4.3/5 (30 votes)

 Cold Blooded Live lessons Tabs too difficult? Try these video lessons and learn fast
 
                [Intro]

G|---------------------------------------------------------------------------|
D|------7/9-7-----7----------------------------------------------------------|
A|-------------10---7---5-7-5-----5--7---------------------------------------|
E|-5----------------------------7--------------------------------------------|

Repeat this all through the verses.
The ending goes right back to the top almost like it is one phrase, so after the E, go right back to an A
at the fifth fret of the E string.


[Verse 1]

G|---------------------------------------------------------------------------|
D|------7/9-7-----7----------------------------------------------------------|
A|-------------10---7---5-7-5-----5--7---------------------------------------|
E|-5----------------------------7--------------------------------------------|


[Chorus]

G|---------------------------------------------------------------------------|
D|---------------------------------------------------------------------------|
A|--3--3----3-3-3---3--5---------------3--3----3-3-3---3--5------------------|
E|------------------------0-0---0-0-0------------------------0-0---0-0-0-----|

G|------------4--------------------------------------------------------------|
D|------4--5-------(7)-------------------------------------------------------|
A|---7-----------------------------------------------------------------------|
E|-----------------(5)-------------------------------------------------------|


[Verse 2]

G|---------------------------------------------------------------------------|
D|------7/9-7-----7----------------------------------------------------------|
A|-------------10---7---5-7-5-----5--7---------------------------------------|
E|------------------------------7--------------------------------------------|
**Note:  I included the opening A in the walk up portion at the end of the chorus, so it is omitted here.  


[Chorus]

G|---------------------------------------------------------------------------|
D|---------------------------------------------------------------------------|
A|--3--3----3-3-3---3--5---------------3--3----3-3-3---3--5------------------|
E|------------------------0-0---0-0-0------------------------0-0---0-0-0-----|

G|------------4--------------------------------------------------------------|
D|------4--5-------(7)-------------------------------------------------------|
A|---7-----------------------------------------------------------------------|
E|-----------------(5)-------------------------------------------------------|


[Bridge]

G|---------------------------------------------------------------------------|
D|------7/9-7-----7----------------------------------------------------------|
A|-------------10---7---5-7-5-----5--7---------------------------------------|
E|-5----------------------------7--------------------------------------------|


[Chorus]

G|---------------------------------------------------------------------------|
D|---------------------------------------------------------------------------|
A|--3--3----3-3-3---3--5---------------3--3----3-3-3---3--5------------------|
E|------------------------0-0---0-0-0------------------------0-0---0-0-0-----|

G|------------4--------------------------------------------------------------|
D|------4--5-------(7)-------------------------------------------------------|
A|---7-----------------------------------------------------------------------|
E|-----------------(5)-------------------------------------------------------|


[Outro]

G|------------4--------------------------------------------------------------|
D|------4--5--------7--------------------------------------------------------|
A|---7-----------------------------------------------------------------------|
E|---------------------------------------------------------------------------|

            
Submit corrections


        Cold Blooded Live lessons Hard to play? Try these video lessons and learn fast Cold Blooded Live lessons
        
↑ Back to top | Tablatures and chords for acoustic guitar and electric guitar, ukulele, drums are parodies/interpretations of the original songs. You may use it for private study, scholarship, research or language learning purposes only