Home » G » Garth Brooks »

Garth Brooks - American Honkytonk Bar Association Tabs

Artists:  A B C D E F G H I J K L M N O P Q R S T U V W X Y Z # 

American Honkytonk Bar Association Tabs

(ver. 2) Click to play this song!
Garth Brooks
(Solo)
American Honkytonk Bar Association (solo)


-3--3--3-----------------------------------------------
-3--6--3-------------10-10brp8--10-10brp8--10--11b~----
-x--------3--4--5~/------------------------------------
-x-----------------------------------------------------
-------------------------------------------------------
-------------------------------------------------------



-8--8------------------------------------------------
-8--11--------------------------10b------------------
-x------10brp8-10--8--10p8------10b------------------
----------------------------10---------------0-0-----
---------------------------------------2-3-4-----3-0-
-----------------------------------------------------


-----------------------------------------------------
-----------------------------------------------------
-----------------------------------------------------
-----0-----------------------------------------------
-----------------------------------------------------
-1b--------------------------------------------------
Album version ending D note is played in drop D.  But this
works best for playing the song live (rhythm part is in
standard tuning). 


That’s it.  Very simple solo, but good to learn for the
intermediate picker.  The sound byte includes a half speed
version.
            
Submit corrections

↑ Back to top | Tablatures and chords for acoustic guitar and electric guitar, ukulele, drums are parodies/interpretations of the original songs. You may use it for private study, scholarship, research or language learning purposes only