Home » G » Garbage »

Garbage - Stupid Girl Tabs

Artists:  A B C D E F G H I J K L M N O P Q R S T U V W X Y Z # 

Stupid Girl Tabs

(ver. 1) Click to play this song!
Garbage
[Intro]
Drums for 4 bars.

  F#7           B
e|-------------|------------|
B|-----5---5---|-4----------|
G|-------------|------------|
D|---4---4---4-|------------| x4 (main riff)
A|-------------|------------|
E|-2-----------|------------|


[Verse 1]
  
  F#m7        B           F#m7       B
e|-----------|-----------|----------|----------|
B|-----------|-------6---|----------|----------|    
G|-----------|-----------|----------|----------|    
D|-----------|-------3-4-|----------|----------| x2 
A|-----------|-----------|----------|----------|    
E|-----------|-----------|----------|----------|   
4 additional bars without guitar.


[Bridge 1]

   D#m       G#m       D#m     G#m     D#m     G#m     D#m     B
e|-----7----|---------|-------|-------|-------|-------|-------|-------|
B|----7-----|---------|-------|-------|-------|-------|-------|-------|
G|---8------|---------|-------|-------|-------|-------|-------|-------|
D|--8-------|---------|-------|-------|-------|-------|-------|-------|
A|-6--------|---------|-------|-------|-------|-------|-------|-------|
E|----------|---------|-------|-------|-------|-------|-------|-------|


[Chorus 1]

  F#7        B         F#7       B         F#7       B         F#7       B
e|----------|---------|---------|---------|---------|---------|---------|---------|
B|----------|---------|---------|---------|---------|---------|---------|---------|
G|----------|-----8b9-|---------|-----8b9-|---------|-----8b9-|---------|-----8b9-|
D|-4--------|---------|---------|---------|---------|---------|---------|---------|
A|-4--------|---------|---------|---------|---------|---------|---------|---------|
E|-2--------|---------|---------|---------|---------|---------|---------|---------|

  F#7           B
e|-------------|------------|
B|-----5---5---|-4----------|
G|-------------|------------|
D|---4---4---4-|------------| x4
A|-------------|------------|
E|-2-----------|------------|


[Verse 2]

  F#m7        B           F#m7       B
e|-----------|-----------|----------|----------|
B|-----------|-------6---|----------|----------|    
G|-----------|-----------|----------|----------|    
D|-----------|-------3-4-|----------|----------| x2 
A|-----------|-----------|----------|----------|    
E|-----------|-----------|----------|----------|   
4 additional bars without guitar.


[Bridge 2]

   D#m       G#m       D#m     G#m     D#m     G#m     D#m     B
e|-----7----|---------|-------|-------|-------|-------|-------|-------|
B|----7-----|---------|-------|-------|-------|-------|-------|-------|
G|---8------|---------|-------|-------|-------|-------|-------|-------|
D|--8-------|---------|-------|-------|-------|-------|-------|-------|
A|-6--------|---------|-------|-------|-------|-------|-------|-------|
E|----------|---------|-------|-------|-------|-------|-------|-------|


[Chorus 2]

  F#7        B         F#7       B         F#7       B         F#7       B
e|----------|---------|---------|---------|---------|---------|---------|---------|
B|----------|---------|---------|---------|---------|---------|---------|---------|
G|----------|-----8b9-|---------|-----8b9-|---------|-----8b9-|---------|-----8b9-|
D|-4--------|---------|---------|---------|---------|---------|---------|---------|
A|-4--------|---------|---------|---------|---------|---------|---------|---------|
E|-2--------|---------|---------|---------|---------|---------|---------|---------|

  F#7           B
e|-------------|------------|
B|-----5---5---|-4----------|
G|-------------|------------|
D|---4---4---4-|------------| x4
A|-------------|------------|
E|-2-----------|------------|


[Solo]

There are actually two guitar tracks:
Guitar 1: (w. Octaver)

  F#7        B
e|----------|---------|
B|----------|---------|
G|----------|---------|
D|----------|---------| x4
A|----------|---------|
E|----1-2-2-|-4b5-----|

Guitar 2: (without Octaver)

e|---------|---------|
B|---------|---------|
G|---------|-----8b9-|
D|---------|---------| x4
A|---------|---------|
E|---------|---------|

But you can play them at the same time, like this:

  F#7        B
e|----------|------------|
B|----------|------------|
G|----------|--------8b9-|
D|----3-4-4-|-6b7--------| x4
A|----------|------------|
E|----1-2-2-|-4b5--------|


[Chorus 3]

  F#7        B         F#7       B         F#7       B         F#7       B
e|----------|---------|---------|---------|---------|---------|---------|---------|
B|----------|---------|---------|---------|---------|---------|---------|---------|
G|----------|-----8b9-|---------|-----8b9-|---------|-----8b9-|---------|-----8b9-|
D|-4--------|---------|---------|---------|---------|---------|---------|---------|
A|-4--------|---------|---------|---------|---------|---------|---------|---------|
E|-2--------|---------|---------|---------|---------|---------|---------|---------|

  F#7        B         F#7       B         F#7       B         F#7       B
e|----------|---------|---------|---------|---------|---------|---------|---------|
B|----------|---------|---------|---------|---------|---------|---------|---------|
G|----------|-----8b9-|---------|-----8b9-|---------|-----8b9-|---------|-----8b9-|
D|-4--------|---------|---------|---------|---------|---------|---------|---------|
A|-4--------|---------|---------|---------|---------|---------|---------|---------|
E|-2--------|---------|---------|---------|---------|---------|---------|---------|

  F#7           B
e|-------------|------------|
B|-----5---5---|-4----------|
G|-------------|------------|
D|---4---4---4-|------------| x4 (main riff)
A|-------------|------------|
E|-2-----------|------------|


[Outro]

Guitar 1: (w. Octaver)
e|-----------------|----------|    |-------|
B|-----------------|----------|    |-------|
G|-----------------|----------|    |-------|
D|-----2b4---------|----------| x4 |-4-----|
A|---4-------------|----------|    |-4-----|
E|-2-------2-4b5-2-|-4b5------|    |-2-----|
                               Turn the octaver off for the last chord.        
Guitar 2: (without Octaver)
e|---------|---------|
B|---------|---------|
G|---------|-----8b9-|
D|---------|---------| x4
A|---------|---------|
E|---------|---------|            
Submit corrections

↑ Back to top | Tablatures and chords for acoustic guitar and electric guitar, ukulele, drums are parodies/interpretations of the original songs. You may use it for private study, scholarship, research or language learning purposes only