Home » G » Garbage »

Garbage - Push It Bass

Artists:  A B C D E F G H I J K L M N O P Q R S T U V W X Y Z # 

Push It Bass

(ver. 2) Click to play this song!
Garbage
Hi everybody!!! I just looked for the bass part of this song around the tabs and the 
were incorrect
so I tabbed my verse, I think it's pretty close to original, so enjoy it!!!

Garbage - Push it

verse
x3
G--------------------------|---------------------------|
D--------------------------|-------------------0-------|
A----------0h2--0--------|----2--------0-2-2-----------|
E---0---0-------------3---|----------------------------|

pre chorus : This is the noise...

G---------------------------------------------------------------------------------------|
D---------------------------------------------------------------------------------------|
A-----0-0---0----0-------2-2-0-2-----0-2-----3-3-2-3----3-2-----5-5----5--------5-------|
E----------3--------3------------------------------------------------7---------------7--|

chorus: Push it

G---------------------------------------------------------------------------------|
D---------------------------------------------------------------------------------|
A----------0h2--0-------3--5----3h5--3-----0----3--5-----3--5----3--5--2--0-------|
E---0---0------------3------------------------------------------------------------|
            
Submit corrections

↑ Back to top | Tablatures and chords for acoustic guitar and electric guitar, ukulele, drums are parodies/interpretations of the original songs. You may use it for private study, scholarship, research or language learning purposes only