Home » G » Garbage »

Garbage - Magnetized Tabs

Artists:  A B C D E F G H I J K L M N O P Q R S T U V W X Y Z # 

Magnetized Tabs

(ver. 1) Click to play this song!
Garbage
[Intro]
Not a guitar but can be played as follows - Repeat twice
C#|-------------------------|
G#|-------------------------|
E |-------------------------|
B |-------------------------|
F#|-------------------------|
C#|8-8-8-8-8-8----8----8-8-8|


[Verse]
Not a guitar but can be played as follows -- Repeat twice
C#|------------------------------------------------|
G#|------------------------------------------------|
E |------------------------------------------------|
B |------------------------------------------------|
F#|------------------------------------------------|
C#|8-8-8-8-8-8----8----8----5-5-5-5-5----5----5-5-5|


[Chorus]
Played with Distortion - Repeat Twice
C#|------------------------------|
G#|------------------------------|
E |------------------------------|
B |3--3--3-3--3--3-5--5--5-5--5-5|
F#|3--3--3-3--3--3-5--5--5-5--5-5|
C#|1--1--1-1--1--1-3--3--3-3--3-3|


[Verse]
Not a guitar but can be played as follows - Repeat twice
C#|------------------------------------------------|
G#|------------------------------------------------|
E |------------------------------------------------|
B |------------------------------------------------|
F#|------------------------------------------------|
C#|5-5-5-5-5-5----5----5----8-8-8-8-8----8----8-8-8|


[Chorus]
Played with Distortion - Repeat 4 times
C#|------------------------------|
G#|------------------------------|
E |------------------------------|
B |3--3--3-3--3--3-5--5--5-5--5-5|
F#|3--3--3-3--3--3-5--5--5-5--5-5|
C#|1--1--1-1--1--1-3--3--3-3--3-3|


[Bridge]
Gtr 1(Rhythm With Distortion) Fig.1 - Repeat 3 times
C#|---------------------------------------------------------------|
G#|---------------------------------------------------------------|
E |7-7-7-7-7-7-7-7-7-7-7-7-7-7-7-7-9-9-9-9-9-9-9-9-9-9-9-9-9-9-9-9|
B |7-7-7-7-7-7-7-7-7-7-7-7-7-7-7-7-9-9-9-9-9-9-9-9-9-9-9-9-9-9-9-9|
F#|5-5-5-5-5-5-5-5-5-5-5-5-5-5-5-5-7-7-7-7-7-7-7-7-7-7-7-7-7-7-7-7|
C#|---------------------------------------------------------------|

Gtr 1(Rhythm With Distortion) Fig.2
C#|---------------------------------------------------------------|
G#|---------------------------------------------------------------|
E |7-7-7-7-7-7-7-7-7-7-7-7-7-7-7-7--------------------------------|
B |7-7-7-7-7-7-7-7-7-7-7-7-7-7-7-7-8-8-8-8-8-8-8-8-8-8-8-8-8-8-8-8|
F#|5-5-5-5-5-5-5-5-5-5-5-5-5-5-5-5-8-8-8-8-8-8-8-8-8-8-8-8-8-8-8-8|
C#|--------------------------------6-6-6-6-6-6-6-6-6-6-6-6-6-6-6-6|

Gtr 2(Lead With Distortion) Fig.1 - Repeat 7 times
C#|12-12-12-12-15-15-12-12-12-12-15-15-12-12-12-12|
G#|-----------------------------------------------|
E |-----------------------------------------------|
B |-----------------------------------------------|
F#|-----------------------------------------------|
C#|-----------------------------------------------|

Gtr 2(Lead With Distortion) Fig.2
C#|10-10-10-10-10-10-10-10-10-10-10-10-10-10-10-10-12|
G#|--------------------------------------------------|
E |--------------------------------------------------|
B |--------------------------------------------------|
F#|--------------------------------------------------|
C#|--------------------------------------------------|

[Verse]
Not a guitar but can be played as follows - Repeat 4 times
C#|-------------------------|
G#|-------------------------|
E |-------------------------|
B |-------------------------|
F#|-------------------------|
C#|5-5-5-5-5-5----5----5-5-5|

Not a guitar but can be played as follows - Repeat twice
C#|------------------------------------------------|
G#|------------------------------------------------|
E |------------------------------------------------|
B |------------------------------------------------|
F#|------------------------------------------------|
C#|5-5-5-5-5-5----5----5----8-8-8-8-8----8----8-8-8|


[Outro]
Played with Distortion Fig.1 - Repeat twice
C#|1-1-1-1-1-1-1-1-1-1-1-1-1-1-1-1-1-3-3-3-3-3-3-3-3-3-3-3-3-3-3-3|
G#|1-1-1-1-1-1-1-1-1-1-1-1-1-1-1-1-1-3-3-3-3-3-3-3-3-3-3-3-3-3-3-3|
E |2-2-2-2-2-2-2-2-2-2-2-2-2-2-2-2-4-4-4-4-4-4-4-4-4-4-4-4-4-4-4-4|
B |3-3-3-3-3-3-3-3-3-3-3-3-3-3-3-3-5-5-5-5-5-5-5-5-5-5-5-5-5-5-5-5|
F#|3-3-3-3-3-3-3-3-3-3-3-3-3-3-3-3-5-5-5-5-5-5-5-5-5-5-5-5-5-5-5-5|
C#|1-1-1-1-1-1-1-1-1-1-1-1-1-1-1-1-3-3-3-3-3-3-3-3-3-3-3-3-3-3-3-3|

Played with Distortion Fig.2 - Repeat Twice
C#|---------------------------------------------------------------|
G#|--------------------------------6-6-6-6-6-6-6-6-8-8-8-8-8-8-8-8|
E |7-7-7-7-7-7-7-7-9-9-9-9-9-9-9-9-5-5-5-5-5-5-5-5-7-7-7-7-7-7-7-7|
B |7-7-7-7-7-7-7-7-9-9-9-9-9-9-9-9-3-3-3-3-3-3-3-3-5-5-5-5-5-5-5-5|
F#|5-5-5-5-5-5-5-5-7-7-7-7-7-7-7-7--------------------------------|
C#|---------------------------------------------------------------|

Played with Distortion Fig.3 - Repeat Twice
C#|--------------------------------------------------------------|
G#|10-10-10-10-10-10-10-10-10-10-10-10-10-10-10-10-10-10-10-10-10|
E |9--9--9--9--9--9--9--9--9--9--9--9--9--9--9--9--9--9--9--9--9-|
B |7--7--7--7--7--7--7--7--7-------------------------------------|
F#|--------------------------------------------------------------|
C#|--------------------------------------------------------------|            
Submit corrections

↑ Back to top | Tablatures and chords for acoustic guitar and electric guitar, ukulele, drums are parodies/interpretations of the original songs. You may use it for private study, scholarship, research or language learning purposes only