Home » G » Garbage »

Garbage - Felt Chords

Artists:  A B C D E F G H I J K L M N O P Q R S T U V W X Y Z # 

Felt Chords

(ver. 1) Click to play this song!
Garbage
Intro (0:00)

   D#                            G#
e-----------------------------|-----------------------------|
b-----------------------------|-----------------------------|
g-----------------------------|-----------------------------|
d--5-5-5-5-5-3-1-1-1-1-1-3-5--|--6-6-6-6-6-3-1-1-1-1-1-3-5--|
a--6-6-6-6-6-6-6-6-6-6-6-6-6--|-----------------------------|
e-----------------------------|--4-4-4-4-4-4-4-4-4-4-4-4-4--|

   D#                            G#
e-----------------------------|-----------------------------|
b-----------------------------|-----------------------------|
g-----------------------------|--5-5-5-5-5-3-1-1-1-1-1-3-5--|
d--5-5-5-5-5-3-1-1-1-1-1-3-5--|--6-6-6-6-6-6-6-6-6-6-6-6-6--|
a--6-6-6-6-6-6-6-6-6-6-6-6-6--|-----------------------------|
e-----------------------------|-----------------------------|



Verse (0:14)

D#              G#
Felt sure you felt something
     D#              G#
Felt sure I know you were sleeping
    D#             G#
You felt you're only kissing
Fm                           G#
They're only feelings, baby, they're only feelings



Bridge (0:43)

   D#                  G#      
e--------------------------------------------|
b--------------------------------------------|
g--12-12-12----------------------------------|
d------------11-11-11--10-10-10--8-10-11-13--|
a--------------------------------------------|
e--------------------------------------------|

   D#                  G#      
e-----------------------------------------|
b-----------------------------------------|
g--12-12-12-------------------------------|
d------------11-11-11--10-10-10-10-10-10--|
a-----------------------------------------|
e-----------------------------------------|



Verse (0:50)

D#              G#
Felt I'd left you hanging
     D#              G#
Felt sure the silence of killing
    D#                 G#
You felt but I saw you leaving
Fm                           G#
They're only feelings, baby, they're only feelings



Bridge (1:19)

   D#                  G#      
e--------------------------------------------|
b--------------------------------------------|
g--12-12-12----------------------------------|
d------------11-11-11--10-10-10--8-10-11-13--|
a--------------------------------------------|
e--------------------------------------------|

   D#                  G#      
e-----------------------------------------|
b-----------------------------------------|
g--12-12-12-------------------------------|
d------------11-11-11--10-10-10-10-10-10--|
a-----------------------------------------|
e-----------------------------------------|



Bridge (1:26)

D#
What's real is real inside
G#
What's real is real inside
D#
What's real is real inside
G#
What is real
Fm                   G#
I still get you, do you still get me



Bridge (1:48)

   D#                  G#      
e--------------------------------------------|
b--------------------------------------------|
g--12-12-12----------------------------------|
d------------11-11-11--10-10-10--8-10-11-13--|
a--------------------------------------------|
e--------------------------------------------|

   D#                  G#      
e-----------------------------------------|
b-----------------------------------------|
g--12-12-12-------------------------------|
d------------11-11-11--10-10-10-10-10-10--|
a-----------------------------------------|
e-----------------------------------------|



Bridge (1:55)

   C#                        F#
e------------------------------------------------------|
b------------------------------------------------------|
g--------------------10-10-10-11-11-11-13-13-13--------|
d--11-11-11-13-13-13------------------------------10---|
a------------------------------------------------------|
e------------------------------------------------------|
                                                     x3

    A#
e------------------------------------|
b------------------------------------|
g--------------------10-10-10-7-7-7--|
d--11-11-11-13-13-13-----------------|
a------------------------------------|
e------------------------------------|

   C#                        F#
e------------------------------------------------------|
b------------------------------------------------------|
g--------------------10-10-10-11-11-11-13-13-13--------|
d--11-11-11-13-13-13------------------------------10---|
a------------------------------------------------------|
e------------------------------------------------------|
                                                     x3

    A#
e------------------------------------|
b------------------------------------|
g--------------------10-10-10-7-7-7--|
d--11-11-11-13-13-13-----------------|
a------------------------------------|
e------------------------------------|



Verse (2:23)

D#           G#
Felt icy on my skin
      D#           G#
Felt sure sensational clinging
    D#            G#
You felt your electrical thinking
Fm                           G#              D#
They're only feelings, baby, they're only feelings



Bridge (2:52)

   D#                  G#      
e--------------------------------------------|
b--------------------------------------------|
g--12-12-12----------------------------------|
d------------11-11-11--10-10-10--8-10-11-13--|
a--------------------------------------------|
e--------------------------------------------|

   D#                  G#      
e-----------------------------------------|
b-----------------------------------------|
g--12-12-12-------------------------------|
d------------11-11-11--10-10-10-10-10-10--|
a-----------------------------------------|
e-----------------------------------------|

   D#                  G#      
e--------------------------------------------|
b--------------------------------------------|
g--12-12-12----------------------------------|
d------------11-11-11--10-10-10--8-10-11-13--|
a--------------------------------------------|
e--------------------------------------------|

   D#                  G#      
e-----------------------------------------|
b-----------------------------------------|
g--12-12-12-------------------------------|
d------------11-11-11--10-10-10-10-10-10--|
a-----------------------------------------|
e-----------------------------------------|



Outro (3:07)

   D#                  G#      
e--------------------------------------------|
b--------------------------------------------|
g--12-12-12----------------------------------|
d------------11-11-11--10-10-10--8-10-11-13--|
a--------------------------------------------|
e--------------------------------------------|

   D#                  G#      
e-----------------------------------------|
b-----------------------------------------|
g--12-12-12-------------------------------|
d------------11-11-11--10-10-10-10-10-10--|
a-----------------------------------------|
e-----------------------------------------|            
Submit corrections

↑ Back to top | Tablatures and chords for acoustic guitar and electric guitar, ukulele, drums are parodies/interpretations of the original songs. You may use it for private study, scholarship, research or language learning purposes only