Home » G » Garbage »

Garbage - Blackout Tabs

Artists:  A B C D E F G H I J K L M N O P Q R S T U V W X Y Z # 

Blackout Tabs

(ver. 1) Click to play this song!
Garbage
[Intro]
Gtr 1 - Distortion

C#|-----------|
G#|-----------|
E |4-5--2-4--5|
B |2-2--0-0--5|
F#|----------3|
C#|-----------|


[Verse]
Gtr 1 - Distortion
Palm mute the whole thing
C#|-----------------------------------------------------------------------|
G#|4-4-4-4-4b5-4b5-4b5-4b5-5-5-5-5-5-5-5-5--------------------------------|
E |----------------------------------------4-4-4-4-4-4-4-4-5-5-5-5-5-5-5-5|
B |-----------------------------------------------------------------------|
F#|-----------------------------------------------------------------------|
C#|-----------------------------------------------------------------------|

Gtr 2 - Clean
Played with reverb
C#|-0---0-0---3---3-3-------------------|
G#|---------------------0--0-0---0---0-0|
E |---------0--0------------------------|
B |2--2---------------------------------|
F#|-------------------3--3-----3---3----|
C#|-------------------------------------|


[Chorus]
Gtr 1 - Distortion
Strum accordingly
C#|---------------------------------------------------------------------|
G#|7-7-7-7-7-----------7-7-7-7-7-----------7-7-7-7-7--------------------|
E |6-6-6-6-6-9-9-9-9-9-6-6-6-6-6-9-9-9-9-9-6-6-6-6-6-9-9-9-9-9-6-6-6-6-6|
B |4-4-4-4-4-9-9-9-9-9-4-4-4-4-4-9-9-9-9-9-4-4-4-4-4-9-9-9-9-9-6-6-6-6-6|
F#|----------7-7-7-7-7-----------7-7-7-7-7-----------7-7-7-7-7-4-4-4-4-4|
C#|---------------------------------------------------------------------|

C#|-----------------------------------------|
G#|7-7-7-7----------------------------------|
E |6-6-6-6-6-9-9-9-9-9-6-6-6-6-6/7-7-7-7-7-7|
B |4-4-4-4-4-9-9-9-9-9-6-6-6-6-6/7-7-7-7-7-7|
F#|----------7-7-7-7-7-4-4-4-4-4/5-5-5-5-5-5|
C#|-----------------------------------------|

Gtr 2 - Distortion

C#|--------------------------------------------------------------------------------|
G#|--7-5---7-5---7-5------7-5----7-5---7-5-----7-5----7-5---7-5-----7-6---7-6---7-6|
E |6-----6-----6--------6------6-----6-------6------6-----6-------6-----6-----6----|
B |--------------------------------------------------------------------------------|
F#|--------------------------------------------------------------------------------|
C#|--------------------------------------------------------------------------------|

[Post Chorus]
Gtr 1 - Distortion
Repeat Twice
C#|------------------------------------------------------------------|
G#|-------------------12-12-12-12-12b13-12b13-12b13-12b13-12b13-12-12|
E |4-5--2-4--5-------------------------------------------------------|
B |2-2--0-0--5-------------------------------------------------------|
F#|----------3-------------------------------------------------------|
C#|------------------------------------------------------------------|

[Verse]

[Chorus]

[Bridge]
Gtr 1 - Distortion
Repeat 3 times and then go to the 2nd part. Repeat the whole thing twice.
C#|-----------------------|
G#|-----------------------|
E |-----------------------|
B |8--5/8--5/8--5/11-11-11|
F#|6--3/6--3/6--3/9--9--9-|
C#|-----------------------|

C#|-------------------------------|
G#|-------------------------------|
E |-------------------------------|
B |6-6-6-6-6-6-6-6-6-7-7-7-7-7-7-7|
F#|4-4-4-4-4-4-4-4-4-5-5-5-5-5-5-5|
C#|-------------------------------|

[Post Chorus]
Gtr 1 - Distortion
Repeat Twice
C#|---------------------------------------------------------|
G#|---------------------------------------------------------|
E |4-5--2-4--5----------------------------------------------|
B |2-2--0-0--5--------9-9-9-9-9-9b10-9b10-9b10-9b10-9b10-9-9|
F#|----------3----------------------------------------------|
C#|---------------------------------------------------------|

[Chorus]

[Outro]
Gtr 1 - Distortion
Repeat 4 times
C#|------------------------------------------------------------------|
G#|-------------------12-12-12-12-12b13-12b13-12b13-12b13-12b13-12-12|
E |4-5--2-4--5-------------------------------------------------------|
B |2-2--0-0--5-------------------------------------------------------|
F#|----------3-------------------------------------------------------|
C#|------------------------------------------------------------------|

Gtr 2 - Distortion
Repeat 3 times
C#|---------------------------------------------------------|
G#|---------------------------------------------------------|
E |4-5--2-4--5----------------------------------------------|
B |2-2--0-0--5--------9-9-9-9-9-9b10-9b10-9b10-9b10-9b10-9-9|
F#|----------3----------------------------------------------|
C#|---------------------------------------------------------|            
Submit corrections

↑ Back to top | Tablatures and chords for acoustic guitar and electric guitar, ukulele, drums are parodies/interpretations of the original songs. You may use it for private study, scholarship, research or language learning purposes only