» » »

Gallows - Just Because You Sleep Next To Me Doesnt Mean Your Safe Tabs

Artists:  A B C D E F G H I J K L M N O P Q R S T U V W X Y Z # 

Just Because You Sleep Next To Me Doesnt Mean Your Safe Tabs

(ver. 1) Click to play this song!
Gallows
 Rating:
4/5 (7 votes)

 Just Because You Sleep Next To Me Doesnt Mean Your Safe lessons Tabs too difficult? Try these video lessons and learn fast
 
                                      |  Gallows   |
      | Just Because You Sleep Next To Me Doesn't Mean Your Safe  |

Tuning:Drop D

Great Song,Great Band.
Intro ahoy

e|---------------------------------------------------------------------|
B|-10-10-------10-10-------10--10-10-10------10-10-------10-10--14-14--|
G|-13-13-------13-13-------13--13-13-13------13-13-------13-13--17-17--|
D|-------------—-------------------------------------------------------|X2
A|--------0560--------0560--------------0560-------0560----------------|
D|--------0560--------0560--------------0560-------0560----------------|

e|---------------------------------------------------------------|
B|---------------------------------------------------------------|
G|---------------------------------------------------------------|
D|--3-0------——--—----—--—---------------------------------------|
A|--3-0~-----—---------------------------------------------------|
E|--3-0~---000056666-65-000056666-65-----------------------------|
       Bass^

Verse:

Guitar One
e|---0---------------0-----------------0----------------------------------|
B|---0---------------0-----------------0----------------------------------|
G|---0---------------0-----------------0------------88-8-8-8-88-8-8-8-----|
D|--------------------------------------------------xx-x-x-x-xx-x-x-x-----|
A|-00---0056-66665-00---005665-6650-00--0056-66665--66-6-6-6-66-6-6-6-----|
D|-00---0056-66665-00---005665-6650-00--0056-66665------------------------|


Guitar Two
e|---0---------------0-----------------0-----------------------------------|
B|---0---------------0-----------------0-----------------------------------|
G|---0---------------0-----------------0------------88-8-8-8/1313-13-13-13-|
D|--------------------------------------------------xx-x-x-x-x-x--x--x--x--|
A|-00---0056-66665-00---005665-6650-00--0056-66665--66-6-6-6/1111-11-11-11-|
D|-00---0056-66665-00---005665-6650-00--0056-66665-------------------------|

PreChorus:

Guitar One
e|-----------------------------------------------------------------|
B|-----------------------------------------------------------------|
G|-7-7-7-7-7-7-7-7-8-8-8-8-6-6-6-6---------------------------------|
D|-x-x-x-x-x-x-x-x-x-x-x-x-x-x-x-x----X4---------------------------|
A|-5-5-5-5-5-5-5-5-6-6-6-6-4-4-4-4---------------------------------|
D|-----------------------------------------------------------------|

Guitar Two
e|-----------------------------------------------------------------|
B|-10-10-10-10-10-10-10-10-11-11-11-11-9-9-9-9---------------------|
G|-13-13-13-13-13-13-13-13-14-14-14-14-12121212--------------------|
D|-------------------------------------------------X4--------------|
A|-----------------------------------------------------------------|
D|-----------------------------------------------------------------|
i think it plays this quietly in the background if not im terribly wrong.

Then play the verse
Then pre chorus


Chorus 2

e|---------------------------------------------------------------------------|
B|---------------------------------------------------------------------------|
G|---------------------------------------------------------------------------|
D|---------------------------------------------------------------------------|
A|-0008883334441-0008883334441-0008883334441-0008883334441-------------------|
D|-0008883334441-0008883334441-0008883334441-0008883334441-------------------|


e|------------------------------------------------------------------------|
B|------------------------------------------------------------------------|
G|------------------------------------------------------------------------|
D|------------------------------------------------------------------------|
A|-08833441111-08833441111------------------------------------------------|
D|-08833441111-08833441111------------------------------------------------|
          ....        ....

Beatdown
Guitar One
e|--------------------------------------------------------------------------|
B|----10p7h9p7----10p7h9p7---10p7h9p7---------------------------------------|
G|--------------------------------------------------------------------------|
D|--------------------------------------------------------------------------|
A|-00---------000----------0------------------------------------------------|
D--00---------000----------0------------------------------------------------|
   ..         ...          .

listen to the song for the rest im way too tired to tab it tonight.

Then play
e|-------------------------------------------------------------------------|
B|----6p3h5p3----6p3h5p3---------------------------------------------------|
G|-------------------------------------------------------------------------|
D|-------------------------------------------------------------------------|
A|-00--------00----------00------------------------------------------------|
D--00--------00----------00------------------------------------------------|
   ..        ..          ..

e|-----------------------------------------------------------|
B|-6~---15------11----11----11-------------------------------|
G|--------14----13(14)13(14)13(14)---------------------------|
D|-0~--------15----------------------------------------------|
A|-0~--------------------------------------------------------|
D|-0~--------------------------------------------------------|

Then The Chorus.
            
Submit corrections


        Just Because You Sleep Next To Me Doesnt Mean Your Safe lessons Hard to play? Try these video lessons and learn fast Just Because You Sleep Next To Me Doesnt Mean Your Safe lessons
        
↑ Back to top | Tablatures and chords for acoustic guitar and electric guitar, ukulele, drums are parodies/interpretations of the original songs. You may use it for private study, scholarship, research or language learning purposes only