» » »

Gallows - I Dread The Night Bass

Artists:  A B C D E F G H I J K L M N O P Q R S T U V W X Y Z # 

I Dread The Night Bass

(ver. 1) Click to play this song!
Gallows
 Rating:
3.8/5 (5 votes)
                (/) Slide Up  (\) Slide Down  (h) Hammer On  (p) Pull Off  (b) Bend (r) Release (v) Vibrato
 This is my first tab ever, hope you like it. if you want to tell me what you think, 


G|---------------------------------------------------------|
D|---------------------------------------------------------|
A|---------------6666--(X3)--3333-----3333-111-------------|         (x2)
D|--555-55-55-555----------------333-----------------------|

G|-----------------------------|
D|-----------------------------|
A|--3333-----3333-1111---------|
E|-------333-------------------|

G|------------------------------------------------|
D|------------------------------------------------|
A|--0-0-0-0-0-0-0-0-0-3333-0-0-0-0-0-0-0-0-0-5555-|
D|------------------------------------------------|


G|-----------------------------------------------|
D|-----------------------------------------------|
A|--0-0-0-0-0-0-0-0-0-3333-3333-----3333---------|
D|------------------------------333------111-----|

G|------------------------------------------------|
D|------------------------------------------------|
A|--0-0-0-0-0-0-0-0-0-3333-0-0-0-0-0-0-0-0-0-5555-|
D|------------------------------------------------|


G|-----------------------------------------------|
D|-----------------------------------------------|
A|--0-0-0-0-0-0-0-0-0-3333-3333-----3333---------|
D|------------------------------333------111-----|

G|------------------------------------------------------------------------|
D|------------------------------------------------------------------------|   (x2)
A|------------------------------------------------------7777555533332222--|
D|--7777777777777777-6666666666666666-5555555555555555--------------------|

G|---------------------------------------------------------|
D|---------------------------------------------------------|
A|---------------6666--(X3)--3333-----3333-111-------------|         (x2)
D|--555-55-55-555----------------333-----------------------|


G|-----------------------|
D|-----------------------|
A|--3333----3333---------|
D|------333-----111------|


G|------------------------------|
D|------------------------------|
A|--3-3-3------3-3-3-6-6-6------|
D|--------3-3-3-----------------|

G|--------------------------------|
D|--------------------------------|
A|--0~--3~--5~---3~--0~------5----|
D|-----------------------2~-------|

G|----------------------------|
D|----------------------------|
A|--33-xxxx--------33-xxxx-11-|
D|----------33-xxxx-----------|

G|---------------------------------------------------------------------|
D|---------------------------(x3)--------------------------------------|
A|------------------6-6------------------33-xxxx----------33-xxxx-11---|
D|--55-55-55--------------------------------------33-xxxx--------------|


G|---------------------------------------------------------------------|
D|---------------------------(x3)--------------------------------------|
A|------------------6-6------------------33-xxxx----------33-xxxx-11---|
D|--55-55-55-------------------------------------33--xxxx--------------|

G|----------------------------------------------|
D|-------------------(x3)-----------------------|
A|--------------------------3-----3--1----------|
D|--57-57-57-57--1-------------3----------------|

G|----------------------------------------------|
D|-------------------(x3)-----------------------|
A|--------------------------3-----3--1----------|
D|--57-57-57-57--1-------------3----------------|

G|------------------------------------------------------------------------|
D|------------------------------------------------------------------------|   (x2)
A|------------------------------------------------------7777555533332222--|
D|--7777777777777777-666666666666666-55555555555555555--------------------|

G|---------------------------------------------------------------|
D|---------------------------------------------------------------|
A|-------------------------------77--66--55----------------------|
D|--7-7-(x8)--6-6 (x8)-5555555555---------------------55-1~------|
            
Submit corrections

↑ Back to top | Tablatures and chords for acoustic guitar and electric guitar, ukulele, drums are parodies/interpretations of the original songs. You may use it for private study, scholarship, research or language learning purposes only