» » »

Gabriel Faure - Pavane Op 50 Tabs

Artists:  A B C D E F G H I J K L M N O P Q R S T U V W X Y Z # 

Pavane Op 50 Tabs

(ver. 1) Click to play this song!
Gabriel Faure
 Rating:
2.4/5 (22 votes)

 Pavane Op 50  lessons Tabs too difficult? Try these video lessons and learn fast
 
                Tuning:

e|------0----------0----------0----------5----------3----------3------|
B|----1---1------1---1------1---1------5---5------3---3------3---3----|
G|----------------------------------------------0---------------------|
D|-----------------------------------3---------------------2----------|
A|--0----------0----------0-------------------------------------------|
E|--------------------------------------------------------------------|

e|----------------------------4----------4--------5---5--------0------|
B|------6----------6--------0---0------0---0--------5--------1---1----|
G|----5---5------5---5------------------------------------------------|
D|--3----------0----------2----------0--------------------------------|
A|----------------------------------------------3----------0----------|
E|--------------------------------------------------------------------|

e|----5---5-----------------3---3------5---5----4---------------------|
B|---------------3---3-------------------0----------------------------|
G|------5----------3----------3---------------------------------------|
D|--0--------------------------------3--------------2-3----0-2--------|
A|------------------------3-----------------------2------------3-2----|
E|-------------3--------------------------------0---------------------|

e|------0----------5----------3----------3----------------------------|
B|----1---1------5---5------3---3------3---3--------6----------6------|
G|------------------------0-----------------------5---5------5---5----|
D|-------------3---------------------2----------3----------0----------|
A|--0-----------------------------------------------------------------|         
E|--------------------------------------------------------------------|

e|------4----------4--------0---0------3---3------3---3------1---0----|
B|----0---0------0---0--------1----------1----------1-----------------|
G|-----------------------------------3----------2----------0---3------|
D|--2----------0------------------------------------------------------|
A|------------------------3-------------------------------------------|
E|--------------------------------------------------------------------|

e|------5----------0-------------------------------------------0------|
B|----5---4------3---3----------1----0--------------0--------0---0----|
G|----------------------------2--------2-0--------1---1---------------|
D|--3----------2------------2--------------3----2----------0----------|
A|------------------------0-------------------------------------------|
E|--------------------------------------------------------------------|

e|----0---0-----------------------------------------0-----------------|
B|---------------4---4--------0----------3-------------------1-3-1----|
G|------2----------2--------1---1------0---0------0---0---------------|
D|---------------------------------------------------------0----------|
A|--3----------2---------------------2----------3---------------------|
E|------------------------0-------------------------------------------|

e|--------------------------------------------------------------------|
B|------3--------1-3-1--------3--------1-3-1--------3----------3------|
G|----0---0-----------------0---0-----------------0---0------2---2----|
D|-------------0---------------------0---------------------3----------|
A|--2---------------------2-------------------------------------------|
E|----------------------------------------------3---------------------|

e|-----------------0--------1-3-0----1---0------|
B|----0-1------0-3---1----3------------3---1----|
G|--------2-------------------------------------|
D|--2-------------------------------------------|
A|----------------------------------------------|
E|----------------------------------------------|

DS AL CODA:

e|------0----------0----------0----------5----------3----------3------|
B|----1---1------1---1------1---1------5---5------3---3------3---3----|
G|----------------------------------------------0---------------------|
D|-----------------------------------3---------------------2----------|
A|--0----------0----------0-------------------------------------------|
E|--------------------------------------------------------------------|

e|----------------------------4----------4--------5---5--------0------|
B|------6----------6--------0---0------0---0--------5--------1---1----|
G|----5---5------5---5------------------------------------------------|
D|--3----------0----------2----------0--------------------------------|
A|----------------------------------------------3----------0----------|
E|--------------------------------------------------------------------|

e|----5---5-----------------3---3------5---5----4---------------------|
B|---------------3---3-------------------0----------------------------|
G|------5----------3----------3---------------------------------------|
D|--0--------------------------------3--------------2-3----0-2--------|
A|------------------------3-----------------------2------------3-2----|
E|-------------3--------------------------------0---------------------|

e|------0----------5----------3----------3----------------------------|
B|----1---1------5---5------3---3------3---3--------6----------6------|
G|------------------------0-----------------------5---5------5---5----|
D|-------------3---------------------2----------3----------0----------|
A|--0-----------------------------------------------------------------|         
E|--------------------------------------------------------------------|

e|------4----------4--------0---0------3---3------3---3------1---0----|
B|----0---0------0---0--------1----------1----------1-----------------|
G|-----------------------------------3----------2----------0---3------|
D|--2----------0------------------------------------------------------|
A|------------------------3-------------------------------------------|
E|--------------------------------------------------------------------|

e|------5----------0-------------------------------5------------------|
B|----5---4------3---3------1-3-0----1---0----------------------------|
G|-------------------------------------2---0------5-------------------|
D|--3----------2---------------------------------2--------------------|
A|------------------------0---------------------0---------------------|
E|--------------------------------------------------------------------|            
Submit corrections


        Pavane Op 50  lessons Hard to play? Try these video lessons and learn fast Pavane Op 50  lessons
        
↑ Back to top | Tablatures and chords for acoustic guitar and electric guitar, ukulele, drums are parodies/interpretations of the original songs. You may use it for private study, scholarship, research or language learning purposes only