Home » F » Funkadelic »

Funkadelic - You And Your Folks, Me And My Folks Tabs

Artists:  A B C D E F G H I J K L M N O P Q R S T U V W X Y Z # 

You And Your Folks, Me And My Folks Tabs

(ver. 1) Click to play this song!
Funkadelic
#------------------------------------------------------------------------------##


b=bend
/=slide up


Intro:

|-------3-5b6--|-------3---|
|--3/5---------|--3/5------|
|--------------|-----------|
|--------------|-----------|
|--------------|-----------|
|--------------|-----------|

Main riff:
|-------3-5b6--|-------3---|
|--3/5---------|--3/5----5-|
|--------------|-----------|
|--------------|-----------|
|--------------|-----------|
|--------------|-----------|

Pretty simple, have fun with it, Hazel adds in some fills inbetween each riff. No chorus yet.
            
Submit corrections

↑ Back to top | Tablatures and chords for acoustic guitar and electric guitar, ukulele, drums are parodies/interpretations of the original songs. You may use it for private study, scholarship, research or language learning purposes only