Home » F » Funkadelic »

Funkadelic - Nappy Dugout Tabs

Artists:  A B C D E F G H I J K L M N O P Q R S T U V W X Y Z # 

Nappy Dugout Tabs

(ver. 1) Click to play this song!
Funkadelic


Main Riff:


-||------------------|-----------------|------------------|---------------||-
-||------------------|-----------------|------------------|---------------||-
-||------------------|-----------------|------------------|---------------||-
-||------------------|-----------------|------------------|---------------||-
-||----7--5----------|------------5----|----7--5----------|---------------||-
-||----------7--5----|----5-5--7-------|----------7--5----|------/7~~-----||-
                                                                              
-||------------------|--------------|------------------|---------------||-
-||------------------|--------------|------------------|---------------||-
-||-*----------------|--------------|------------------|-------------*-||-
-||-*----------------|--------------|------------------|-------------*-||-
-||----7--5----------|--------------|----7--5----------|---------------||-
-||----------7--5----|----5-5--7----|----------7--5----|------/7~~-----||-
            
Submit corrections

↑ Back to top | Tablatures and chords for acoustic guitar and electric guitar, ukulele, drums are parodies/interpretations of the original songs. You may use it for private study, scholarship, research or language learning purposes only