» » »

Funkadelic - Lets Take It To The People Tabs

Artists:  A B C D E F G H I J K L M N O P Q R S T U V W X Y Z # 

Lets Take It To The People Tabs

(ver. 1) Click to play this song!
Funkadelic
 Rating:
4/5 (4 votes)

 Lets Take It To The People lessons Tabs too difficult? Try these video lessons and learn fast
 
                FunkadeliC

Let's Take it to the People
(Clinton, Hazel, Shider)
Taken from: The Tales of Kidd Funkadelic

Riff I a

Everything is there...                                (mimics keyboard)
e|-------------------------------------------------------------|
B|---------------------------------------------------8-5-3-----|
G|---------------------------------------------------7-4-2-5---|
D|-----------------------5/6-/7-7------7/8-/9--------------5---|
A|----------5-/-7—7-7----3/4-/5-5----x-5/6-/7------------------|
E|--0-3-0---3-/-5-5-5--------------------------0---------------|

Riff I b,   (played on top of riff I a)
                                 G5 E  D  C
e|-5-5-5-------------------------------------------------------|
B|--------8-8-8--7-7-7--5-7-8----8--9--7--5--------------------|
G|-------------------------------7--9--7--5--------------------|
D|-------------------------------5--9--7--5--------------------|
A|-------------------------------5--7--5--3--------------------|
E|-------------------------------------------------------------|

Riff II a,c
Let’s take it to the people..
e|-----------------------------------------3-2---2-------------|
B|--5------------------5-5-5-5---5-x-x-5---3-2-5-2-------------|
G|--4----------4-6-4---4-4-4-4---4-x-x-4-------4---------------|
D|--2---4-5-6----------2-2-2-2---2-x-x-2-----------------------|
A|--2------------------2-2-2-2---2-x-x-2-----------------------|
E|-------------------------------------------------------------|

Riff II b
e|-----------------------------------------3-2-----------------|
B|--5------------------5-5-5-5---5-x-x-5---3-2-5---------------|
G|--4----------4-6-4---4-4-4-4---4-x-x-4-------4---------------|
D|--2---4-5-6----------2-2-2-2---2-x-x-2-----------------------|
A|--2------------------2-2-2-2---2-x-x-2-----------------------|
E|-------------------------------------------------------------|

Riff II d
e|--------------------7----------------------------------9-----|
B|--10------------------7-7--10--11--12--------------------8-8-|
G|--9----------7-9-7---------9---10--11-----------9-11-9-------|
D|--7---7-8-9----------------7---8---9---9-10-11---------------|
A|--7------------------------7---8---9-------------------------|
E|-------------------------------------------------------------|

Outro, harmony with riff I b (also played on top of riff I a)

e|--12-12-12--10-10-10--9-9-9-----9-10-------------------------|
B|----------------------------12-------------------------------|
G|-------------------------------------------------------------|
D|-------------------------------------------------------------|
A|-------------------------------------------------------------|
E|-------------------------------------------------------------|
            
Submit corrections


        Lets Take It To The People lessons Hard to play? Try these video lessons and learn fast Lets Take It To The People lessons
        
↑ Back to top | Tablatures and chords for acoustic guitar and electric guitar, ukulele, drums are parodies/interpretations of the original songs. You may use it for private study, scholarship, research or language learning purposes only