Home » F » Funkadelic »

Funkadelic - Into You Tabs

Artists:  A B C D E F G H I J K L M N O P Q R S T U V W X Y Z # 

Into You Tabs

(ver. 1) Click to play this song!
Funkadelic
(Intro)
#------------------------------------------------------------------------------##



v=vibrato
/=slide up
\=slide down

Main Riff:

  Into you now..Into you now..
e|------------|-------------|
B|--9-7-9-6v--|-------------|
G|------------|--8-6-8/9--6-|
D|------------|-------------|
A|------------|-------------|
E|------------|-------------| 

 Into you now..Into you my people 
e|------------|---------------------|
B|--9-7-9-6v--|---------------------|
G|------------|--8-6-8/9--6-6/8\6---|
D|------------|-------------------8v|
A|------------|---------------------|
E|------------|---------------------|

That very first part may be a half-step down, but this way still sounds good.Enjoy!
            
Submit corrections

↑ Back to top | Tablatures and chords for acoustic guitar and electric guitar, ukulele, drums are parodies/interpretations of the original songs. You may use it for private study, scholarship, research or language learning purposes only