Home » F » Funkadelic »

Funkadelic - Good To Your Earhole Tabs

Artists:  A B C D E F G H I J K L M N O P Q R S T U V W X Y Z # 

Good To Your Earhole Tabs

(ver. 1) Click to play this song!
Funkadelic
[Verse 1] (0:10-1:33)
 
e|-----------------------------|
B|-----------------------------|
G|-7-7-7-7---6-7-8-9-----------|
D|-6-6-6-6---x-x-x-x---5-4-3-2-|
A|-7-7-7-7---4-5-6-7---x-x-x-x-|
E|---------------------3-2-1-0-|
 
[Bridge] (1:34-1:45)
e|---------|
B|---------|
G|---------|
D|-7-9s-10-|
A|-7-9s-10-|
E|-5-7s-8--|
 
 
[Chorus] (1:45-1:55)
 
e|-9--9--9--9----7-7-7-7-7---7-7---5-5-5-5-|
B|-10-10-10-10---8-8-8-8-8---7-7---5-5-5-5-|
G|-9--9--9--9----7-7-7-7-7---7-7---5-5-5-5-|
D|-11-11-11-11---9-9-9-9-9---7-7---5-5-5-5-|
A|-9--9--9--9----9-7-7-7-7---9-9---7-7-7-7-|
E|---------------------------7-7---5-5-5-5-|
 
 
[Verse 2] (1:55-4:35)
 
e|-----------------------------|
B|-----------------------------|
G|-7-7-7-7---6-7-8-9-----------|
D|-6-6-6-6---x-x-x-x---5-4-3-2-|
A|-7-7-7-7---4-5-6-7---x-x-x-x-|
E|---------------------3-2-1-0-|
            
Submit corrections

↑ Back to top | Tablatures and chords for acoustic guitar and electric guitar, ukulele, drums are parodies/interpretations of the original songs. You may use it for private study, scholarship, research or language learning purposes only