Home » F » Fugazi »

Fugazi - Last Chance For A Slow Dance Tabs

Artists:  A B C D E F G H I J K L M N O P Q R S T U V W X Y Z # 

Last Chance For A Slow Dance Tabs

(ver. 1) Click to play this song!
Fugazi

Here's "Last Chance For A Slow Dance"  by fugazi....if you have any
tabs please mail them too!!!!

/ = Oh you know...
^  = Pull off

"Last Chance For A Slow Dance"  --  FUGAZI!!!!!

B|----------------------|----------------|
G|--5/7-7---------------|--5/7-7---------|
D|--5/7---7777-7^5------|--5/7--7--------|<--(that 7)
A|--3/5-----------7-----|--3/5---5-------|<--or play two 5's and no 7
E|----------------------|---------7-5----|   on the D string. whatever...


couple power chords while Ian sings:
"shot shooting...shot shot..."

B|--------------|  real tuff ;)
G|---7----------|
D|---7---7----5-|
A|---5---7----5-|
E|-------5----3-|


That's the song...pretty simple but neat-O!

Today's transcription was brought to you by the letter "Q"


Derrick Daugherty


"Your selective judgements and good guy badges
don't mean a f**k to me"  --  Marilyn Manson

###### #     #   ######     ##     #######  #
#      #     #  #          #  #     #       #
####   #     #  #   ###   ######      #     #
#      #     #  #     #  #      #       #   #
#       #####    ######  #      #  #######  #


Here's "Last Chance For A Slow Dance"  by fugazi....if you have any
tabs please mail them too!!!!

/ = Oh you know...
^  = Pull off

"Last Chance For A Slow Dance"  --  FUGAZI!!!!!

e|----------------|-------------------|
B|--2/3-3---------|-----3-------------|
G|--2/3-----------|--2/3--------------|
D|--------0-2^0---|-------0-22-2^0-0--|
A|-------------0--|-------------------|
E|----------------|-------------------|


couple power chords while he sings:
"shot shooting...shot shot..."

B|--------------|  real tuff ;)
G|---7----------|
D|---7---7----5-|
A|---5---7----5-|
E|-------5----3-|


That's the song...pretty cool, simple but neat-O!

Today's transcription was brought to you by the letter "Q"

Derrick Daugherty /  shleestak

revised by:
Jeremiah Wade (stud)


"Dare to be honest, be yourself.  A cowardly man......"  -=Korn=-

                           FVGAZI.
            
Submit corrections

↑ Back to top | Tablatures and chords for acoustic guitar and electric guitar, ukulele, drums are parodies/interpretations of the original songs. You may use it for private study, scholarship, research or language learning purposes only