» » »

Fugazi - Greed Tabs

Artists:  A B C D E F G H I J K L M N O P Q R S T U V W X Y Z # 

Greed Tabs

(ver. 1) Click to play this song!
Fugazi
 Rating:
4.3/5 (20 votes)

 Greed lessons Tabs too difficult? Try these video lessons and learn fast
 
                [Intro]

e|-----------------7+--7+--7+---7+------------------7+--7+--7+---7+---|
B|-----------------7+--7+--7+---7+------------------7+--7+--7+---7+---|
G|-9-9-4-4-4-4-4---7+--7+--7+---7+--9-9-4-4-4-4-4---7+--7+--7+---7+---|
D|-x-x-x-x-x-x-x---7+--7+--7+---7+--x-x-x-x-x-x-x---7+--7+--7+---7+---|
A|-7-7-2-2-2-2-2---7+--7+--7+---7+--7-7-2-2-2-2-2---7+--7+--7+---7+---|
E|-----------------7+--7+--7+---7+------------------7+--7+--7+---7+---|

e|-----------------7+--7+--7+---7+------------------7+--7+--7+---7+---|
B|-----------------7+--7+--7+---7+------------------7+--7+--7+---7+---|
G|-9-9-4-4-4-4-4---7+--7+--7+---7+--9-9-4-4-4-4-4---7+--7+--7+---7+---|
D|-x-x-x-x-x-x-x---7+--7+--7+---7+--x-x-x-x-x-x-x---7+--7+--7+---7+---|
A|-7-7-2-2-2-2-2---7+--7+--7+---7+--7-7-2-2-2-2-2---7+--7+--7+---7+---|
E|-----------------7+--7+--7+---7+------------------7+--7+--7+---7+---|

e|--------------------------------------------------------------------|
B|--------------------------------------------------------------------|
G|-9-9-4-4-4-4-4--------------------9-9-4-4-4-4-4---------------------|
D|-x-x-x-x-x-x-x--------------------x-x-x-x-x-x-x---------------------|
A|-7-7-2-2-2-2-2--------------------7-7-2-2-2-2-2---------------------|
E|--------------------------------------------------------------------|

                   ↓ This section is improvised, do anything within key
e|-----------------0~~~~~~~~~~~~~~~----------------------------------|
B|-----------------0~~~~~~~~~~~~~~~----------------------------------|
G|-9-9-4-4-4-4-4---4~~~~~~~~~~~~~~~9-9-4-4-4-4-4---------------------|
D|-x-x-x-x-x-x-x---4~~~~~~~~~~~~~~~x-x-x-x-x-x-x---------------------|
A|-7-7-2-2-2-2-2---2~~~~~~~~~~~~~~~7-7-2-2-2-2-2---------------------|
E|-----------------0~~~~~~~~~~~~~~~----------------------------------|
                                                 "You want, you want, you want!"

e|-----------------0~~~~~~~~~~~~~~~----------------------------------|
B|-----------------0~~~~~~~~~~~~~~~----------------------------------|
G|-9-9-4-4-4-4-4---4~~~~~~~~~~~~~~~9-9-4-4-4-4-4---------------------|
D|-x-x-x-x-x-x-x---4~~~~~~~~~~~~~~~x-x-x-x-x-x-x---------------------|
A|-7-7-2-2-2-2-2---2~~~~~~~~~~~~~~~7-7-2-2-2-2-2---------------------|
E|-----------------0~~~~~~~~~~~~~~~----------------------------------|

e|-----------------0~~~~~~~~~~~~~~~----------------------------------|
B|-----------------0~~~~~~~~~~~~~~~----------------------------------|
G|-9-9-4-4-4-4-4---4~~~~~~~~~~~~~~~9-9-4-4-4-4-4---------------------|
D|-x-x-x-x-x-x-x---4~~~~~~~~~~~~~~~x-x-x-x-x-x-x---------------------|
A|-7-7-2-2-2-2-2---2~~~~~~~~~~~~~~~7-7-2-2-2-2-2---------------------|
E|-----------------0~~~~~~~~~~~~~~~----------------------------------|

[Verse]

e|----------------------------------------------|
B|----------------------------------------------|
G|----------------------------------------------| x4
D|-9-9-9-9-9-4------------9-9-9-9-9-11----------|
A|-x-x-x-x-x-x------------x-x-x-x-x-x-----------|
E|-7-7-7-7-7-2------------7-7-7-7-7-9-----------|
   You wanted everything, you needed everything

e|-----------------0~~~~~~~~~~~~~~~----------------------------------|
B|-----------------0~~~~~~~~~~~~~~~----------------------------------|
G|-9-9-4-4-4-4-4---4~~~~~~~~~~~~~~~9-9-4-4-4-4-4---------------------|
D|-x-x-x-x-x-x-x---4~~~~~~~~~~~~~~~x-x-x-x-x-x-x---------------------|
A|-7-7-2-2-2-2-2---2~~~~~~~~~~~~~~~7-7-2-2-2-2-2---------------------|
E|-----------------0~~~~~~~~~~~~~~~----------------------------------|

e|-----------------0~~~~~~~~~~~~~~~----------------------------------|
B|-----------------0~~~~~~~~~~~~~~~----------------------------------|
G|-9-9-4-4-4-4-4---4~~~~~~~~~~~~~~~9-9-4-4-4-4-4---------------------|
D|-x-x-x-x-x-x-x---4~~~~~~~~~~~~~~~x-x-x-x-x-x-x---------------------|
A|-7-7-2-2-2-2-2---2~~~~~~~~~~~~~~~7-7-2-2-2-2-2---------------------|
E|-----------------0~~~~~~~~~~~~~~~--------------x\\\\\\\\\\\\\\\\\\-|
                                                 You want, you want, you want!

e|----------------------------------------------|
B|----------------------------------------------|
G|----------------------------------------------| x4
D|-9-9-9-9-9-4------------9-9-9-9-9-11----------|
A|-x-x-x-x-x-x------------x-x-x-x-x-x-----------|
E|-7-7-7-7-7-2------------7-7-7-7-7-9-----------|
   You wanted everything, you needed everything

[Chorus]

e|------------------------------------------------------------------|
B|------------------------------------------------------------------|
G|------------------------------------------------------------------|
D|-7-7-7-7-7-7-7-7-7-7-7-7-7-7-7-7-7-7-7-7-7-7-7-7-7-7-7-7-7-7-7-7--| x2
A|-x-x-x-x-x-x-x-x-x-x-x-x-x-x-x-x-x-x-x-x-x-x-x-x-x-x-x-x-x-x-x-x--|
E|-5-5-5-5-5-5-5-5-5-5-5-5-5-5-5-5-5-5-5-5-5-5-5-5-5-5-5-5-5-5-5-5--|

One measure of silence, then:

e|-----------------7+--7+--7+---7+------------------7+--7+--7+---7+---|
B|-----------------7+--7+--7+---7+------------------7+--7+--7+---7+---|
G|-9-9-4-4-4-4-4---7+--7+--7+---7+--9-9-4-4-4-4-4---7+--7+--7+---7+---|
D|-x-x-x-x-x-x-x---7+--7+--7+---7+--x-x-x-x-x-x-x---7+--7+--7+---7+---|
A|-7-7-2-2-2-2-2---7+--7+--7+---7+--7-7-2-2-2-2-2---7+--7+--7+---7+---|
E|-----------------7+--7+--7+---7+------------------7+--7+--7+---7+---|
                   Greed, greed, greed, greed       Greed, greed, greed, greed

e|-----------------7+--7+--7+---7+------------------7+--7+--7+---7+---|
B|-----------------7+--7+--7+---7+------------------7+--7+--7+---7+---|
G|-9-9-4-4-4-4-4---7+--7+--7+---7+--9-9-4-4-4-4-4---7+--7+--7+---7+---|
D|-x-x-x-x-x-x-x---7+--7+--7+---7+--x-x-x-x-x-x-x---7+--7+--7+---7+---|
A|-7-7-2-2-2-2-2---7+--7+--7+---7+--7-7-2-2-2-2-2---7+--7+--7+---7+---|
E|-----------------7+--7+--7+---7+------------------7+--7+--7+---7+---|
                   Greed, greed, greed, greed       Greed, greed, greed, greed

e|------------------------------------------------------------------|
B|------------------------------------------------------------------|
G|------------------------------------------------------------------|
D|-7-7-7-7-7-7-7-7-7-7-7-7-7-7-7-7-7-7-7-7-7-7-7-7-7-7-7-7-7-7-7-7--|
A|-x-x-x-x-x-x-x-x-x-x-x-x-x-x-x-x-x-x-x-x-x-x-x-x-x-x-x-x-x-x-x-x--|
E|-5-5-5-5-5-5-5-5-5-5-5-5-5-5-5-5-5-5-5-5-5-5-5-5-5-5-5-5-5-5-5-5--|
   Everything is, everything is:

e|------------------|
B|------------------|
G|-9-9-4-4-4-4-4----|
D|-x-x-x-x-x-x-x----|
A|-7-7-2-2-2-2-2----|
E|------------------|
   Greed!

            
Submit corrections


        Greed lessons Hard to play? Try these video lessons and learn fast Greed lessons
        
↑ Back to top | Tablatures and chords for acoustic guitar and electric guitar, ukulele, drums are parodies/interpretations of the original songs. You may use it for private study, scholarship, research or language learning purposes only