Home » F » Fugazi »

Fugazi - Exit Only Tabs

Artists:  A B C D E F G H I J K L M N O P Q R S T U V W X Y Z # 

Exit Only Tabs

(ver. 1) Click to play this song!
Fugazi
Intro]
Fade in on this with feedback/slow vibrato
e|----|
B|----|
G|----|
D|----|
A|-7~-|
E|----|
 
e|-------------|
B|-------------|
G|-------------|
D|----------11-|
A|-----7/11----|
E|-9-9---------|x16
 
e|-------------------------|
B|-------------------------|
G|-------------------------|
D|----------12b------------|
A|-------------------------|
E|-(0)-----------------(0)-|
 
e|-------------|
B|-------------|
G|-------------|
D|----------11-|
A|-----7/11----|
E|-9-9---------|x4
 
e|----------|
B|----------|
G|----------|
D|-11h12p11-|
A|----------|
E|----------|x16
 
e|-------------------------|
B|-------------------------|
G|-11-11-11-11-11-11-11-11-|
D|-11-11-11-11-11-11-11-11-|
A|--9--9--9--9--9--9--9--9-|
E|-------------------------|
 
e|----------|
B|----------|
G|----------|
D|-11h12p11-|
A|----------|
E|----------|x8
 
e|-------------------------|
B|-------------------------|
G|-11-11-11-11-11-11-11-11-|
D|-11-11-11-11-11-11-11-11-|
A|--9--9--9--9--9--9--9--9-|
E|-------------------------|
 
e|-------------|
B|-------------|
G|-------------|
D|----------11-|
A|-----7/11----|
E|-9-9---------|x4
 
e|---------------|
B|---------------|
G|---------------|
D|---------------|
A|-9-9--9/11/9---|
E|-7-7---------9-|x8
 
e|---------------------------------|
B|---------------------------------|
G|---------------------------------|
D|-7-7-7-7-7-7-7-7-4-4-4-4-4-2-2-2-|
A|-7-7-7-7-7-7-7-7-4-4-4-4-4-2-2-2-|
E|-5-5-5-5-5-5-5-5-2-2-2-2-2-0-0-0-|
 
e|---------------|
B|---------------|
G|---------------|
D|---------------|
A|-9-9--9/11/9---|
E|-7-7---------9-|x4
 
e|---------------------------------|
B|---------------------------------|
G|---------------------------------|
D|-7-7-7-7-7-7-7-7-4-4-4-4-4-2-2-2-|
A|-7-7-7-7-7-7-7-7-4-4-4-4-4-2-2-2-|
E|-5-5-5-5-5-5-5-5-2-2-2-2-2-0-0-0-|
 
e|---------------|
B|---------------|
G|---------------|
D|---------------|
A|-9-9--9/11/9---|
E|-7-7---------9-|x2
 
e|---------------------------------|
B|---------------------------------|
G|---------------------------------|
D|-7-7-7-7-7-7-7-7-4-4-4-4-4-2-2-2-|
A|-7-7-7-7-7-7-7-7-4-4-4-4-4-2-2-2-|
E|-5-5-5-5-5-5-5-5-2-2-2-2-2-0-0-0-|
 
E|-------|
B|-------|
G|-11-11-|
D|-11-11-|
A|--9--9-|
E|-------|
            
Submit corrections

↑ Back to top | Tablatures and chords for acoustic guitar and electric guitar, ukulele, drums are parodies/interpretations of the original songs. You may use it for private study, scholarship, research or language learning purposes only