» » »

Frusciante John - So Would Have I Tabs

Artists:  A B C D E F G H I J K L M N O P Q R S T U V W X Y Z # 

So Would Have I Tabs

(ver. 1) Click to play this song!
Frusciante John
 Rating:
4/5 (4 votes)

 So Would Have I lessons Tabs too difficult? Try these video lessons and learn fast
 
                

Heres how I play the chords for the verse:
  Am      G      C       F
-|-5------3------8-------1----------------------------------------------------
-|-5------3------8-------1----------------------------------------------------
-|-5------4------9-------2----------------------------------------------------
-|-7------5------10------3----------------------------------------------------
-|-7------5------10------3----------------------------------------------------
-|----------------------------------------------------------------------------
                                                                              
Heres how I play the chords for the first 2 line of the chorus, for the rest I
use the first way:
  Am       G      F 
-|----------------------------------------------------------------------------
-|----------------------------------------------------------------------------
-|----------------------------------------------------------------------------
-|-7-------5------3-----------------------------------------------------------
-|-7-------5------3-----------------------------------------------------------
-|-5-------3------1-----------------------------------------------------------
                                                                              
Verse 1:
Am                    G
Make her into a man a key of (???)
Am          C
So would have I
Am            G        F
I collapse its time to breaks up
G
runs out

Chorus:
Am       G           F
Take your face to the god 
Am          G     F
Noone works so hard
F
to keep you out
Am    G   F
play on here 
Am         G             F
before its your turn to fade out

Verse 2:
Am                    G
Make her into a fan a key of (???)
Am       C
He would die
Am            G                 F
Just to take fate somewhere it could have been
              G
Maybe been otherwise

Chorus:
Am          G             F
Trading the far for the near (??)
Am          G           F
Stand your bodies clear out
Am         G          F      Am
Oh won't you whats stay
 G        F                     
Someone fakes you, step where 
Am  G      F        Am
We standed go (??)
G                  F      Am
Its not always the move
G      F
Say it too
Am    G       F    
We show you
Am  G   F      
Say it too
Am  G     F
We show you
********************************************************
********************************************************
So Would Have I / John Frusciante
=-=-=-=-=-=-=-=-=-=-=-=-=-=-=-=-=


     ----------

Verse 1:
=-=-=-=-

Am                    G
may the medium on the other key all
Am            C
so would have I
Am          G       F
i desire to sell to break stuff
G

Am        G           F
take your face to the god
Am           G    F
no one works so hard, to keep you out
Am     G      Am
play   your   high
A         G           F
people in shorter the fade out


Verse 2:
=-=-=-=-

Am                      G
make your reason on the other
he knows
Am           C
he wanted to have
Am      G             F
just to take me to my carnabear(?!)
                  G
made appear on the one

Am       G           F
trade in mom for the near
Am         G       F
stand your bodys cleaner

  Am   G   Am
i want you upstair


Outro:
=-=-=-

Am  G      F
    summer fakes you, that where
Am    G          F
   we stay to go ho
Am      G               F
   it's not on here the moon
Am        G       F
   say we have to show
Am    G             F       
   we show you all
   Am   G   F
we saying, show...
Am    G           F
 we show you all.

     ----------
            
Submit corrections


        So Would Have I lessons Hard to play? Try these video lessons and learn fast So Would Have I lessons
        
↑ Back to top | Tablatures and chords for acoustic guitar and electric guitar, ukulele, drums are parodies/interpretations of the original songs. You may use it for private study, scholarship, research or language learning purposes only