Home » F » Frusciante John »

Frusciante John - My Smile Is A Rifle Tabs

Artists:  A B C D E F G H I J K L M N O P Q R S T U V W X Y Z # 

My Smile Is A Rifle Tabs

(ver. 1) Click to play this song!
Frusciante John

2.My Smile Is a Rifle
Tablature by Paul Caspers


T = fret w/ thumb

INTRO:
   C                   E
e|-----------------------------------|
B|-----------------------------------| bar 1
G|-7----9--7----9--7--(9)------------|
D|-------------------------9---------|
A|-----------------------------------|
E|-8-------8-------8---0---0---------|

   Am                    E
e|-----------------------------------|
B|-----------------------8-----------| bar 2
G|-7----7--7----7--5--7----9---------|
D|-----------------------------------|
A|-----------------------------------|
E|-5-------5-------5-----0-----------|

   G                                                  E
e|---5--3----5--3-----5--3-----5--3-----5--3----5--3--0--------|
B|----------------------------------------------------0--------|
G|----------------------------------------------------1--------|
D|-5------5-------5--------5--------5--------5--------2--------|
A|----------------------------------------------------2--------|
E|---3T-----------------------------------------------0--------|

--repeat bars 1 and 2 then 1 again--

   G                           E
e|-----------------------------0-----------|
B|----3-----3-----3-----3------0-----------|
G|------4-----4-----4-----4----1--------1--|
D|-5------5-----5-----5-----5--2-----------|
A|-----------------------------2-----------|
E|-----------------------------0-----------|


VERSE:

    Am         G        Am        G
e|-------------------------0---0--------------|
B|------5---5--------------5---5--------------| repeat
G|o---------------4--------------------------o| with slight
D|o------------------5---------------5-------o| varation
A|--------------------------------------5-----|
E|---5----5----3--------5----5----3-----------|


CHORUS:
   Am          Em         Am        G
e|----0---0-------0----0-----0---0-----3----3--|
B|----5---5-------5----5-----5---5-----3----3--|
G|---------------------------------------------|
D|---------------------------------------------|
A|---------------------------------------------|
E|-5----5----5-0-----0----5----5----3-----3----|
            
Submit corrections

↑ Back to top | Tablatures and chords for acoustic guitar and electric guitar, ukulele, drums are parodies/interpretations of the original songs. You may use it for private study, scholarship, research or language learning purposes only