» » »

Frou Frou - Let Go Bass

Artists:  A B C D E F G H I J K L M N O P Q R S T U V W X Y Z # 

Let Go Bass

(ver. 2) Click to play this song!
Frou Frou
 Rating:
4.2/5 (5 votes)

 Let Go lessons Tabs too difficult? Try these video lessons and learn fast
 
                FROU FROU - LET GO


I believe Guy Sigsworth wrote all the music on 'Details', so credit goes to him for
this. Note that there are some effects on the bassline in this song, so sometimes the
number of notes in some sections are pretty difficult to hear. Also as this is only a
I have not written the correct number of notes in a lot of the verse and 'Hey ya hey'
so they will really have to be listened to to hear when and how often the notes fall.


Chorus -

-----------5-5-------------------------5-5------------------------|
---------------7-7-------------------------7-7------------3-3-----|
---5-5-8-8--------------------------------------------------------|
-------------------5--3-5--6-5--6--6-6----------1--1-1--1---------|

-----------5-5-------------------------5-5------------------------|
---------------7-7-------------------------7-7---------3-2--------|
---5-5-8-8--------------------------------------3--3-3------------|
-------------------5--3-5--6-5--6--6-6----------------------------|


Verse -

Listen to hear how many times to play each note - the amount I've written is not correct.

------------------------------------------------------------------|
---3-3-3-3-3-3----------------3-3-3-3-3-3-------------------------|
----------------5-5-5-5-5-5----------------5-5-5-5-5-5------------|
------------------------------------------------------------------|

------------------------------------------------------------------|
---5-5-5-5-5-5----------------------------------------------------|
------------------------------------------------------------------|
----------------5-5-5-5-5-5--6-6-6-6-6-6--8-8-8-8-8-8-------------|


------------------------------------------------------------------|
---5-5-5-5-5-5--7-7-7-7-7-7---------------------------------------|
------------------------------------------------------------------|
-----------------------------6-6-6-6-6-6--8-8-8-8-8-8-------------|


'Hey ya hey' bit -

Incredibly hard to hear exactly when and how many notes fall - the amount I've written
generally not correct. However if you use the following as a guideline, then you can work
out/make it up yourself. Note especially the jump from the D (5 on A string) to its
A (7 on D string), as it's pretty tricky to hear exactly when/how many times it
Also, for the low F as I've written it (1 on the E string), it could possibly be an F#
even G (2 or 3 on E string), just listen and see what you think sounds best.

--------------------------------------------------------------------------------------------|
-------------------------------------------7---------7-7----------------------------7-------|
---5-5-5-5-5-5-5------5-5-5-5-5-5-5---5-5-5---5-5-5-5-5-5-5------5-5-5-5-5-5-5-5-----5-5-5--|
-----------------1-1-----------------------------------------1-1----------------------------|


--------------------------5-5-------------------------------9-9-9-9-9------|
---5-5-5-5-5-5-5-------------7-7-------------------------------------------|
---------------------------------------------------------------------------|
------------------5-5-5-5----------6-6-6-6-6-6-6-8-8-8-8-8-----------------|

--------------------------5-5-----------------------------9-9-9-9-9--------|
---5-5-5-5-5-5-5-7-7-7-7-----7-7-------------------------------------------|
---------------------------------------------------------------------------|
---------------------------------6-6-6-6-6-6-6-8-8-8-8-8-------------------|


Song order -

Chorus - x3

Verse - x1

Chorus - x2

'Hey ya hey' bit - x1

Chorus - x6


So that's the whole song. Again, the amount of notes I've written for the verse and 'Hey
hey' section are not correct. There'd be no point in me writing out exactly how many
are played, as tabs can't show proper rhythm, so just listen and you should be able to
it and work out the tune.

Enjoy.
            
Submit corrections


        Let Go lessons Hard to play? Try these video lessons and learn fast Let Go lessons
        
↑ Back to top | Tablatures and chords for acoustic guitar and electric guitar, ukulele, drums are parodies/interpretations of the original songs. You may use it for private study, scholarship, research or language learning purposes only