Home » F » From First To Last »

From First To Last - Waltz Moore Tabs

Artists:  A B C D E F G H I J K L M N O P Q R S T U V W X Y Z # 

Waltz Moore Tabs

(ver. 3) Click to play this song!
From First To Last
Waltz Moore


d|--------------------------------|
a|-15-----------------------------|
f|---15-----------------12--------|
c|-----12-14^-11-15-14-15---15-14-|
g|--------------------------------|
c|--------------------------------|x2

  ...I can't eat anyhting...
d|--------------------------------|
a|--------------------------------|
f|--------------------------------|
c|-12---------------8-------------|
g|-12---------------8-------------|
c|-12-(let it ring)-8-(x6)--------|


d|--------------------------------|
a|--------------------------------|
f|--------------------------------|
c|-12---------------8-------------|
g|-12---------------8-------------|
c|-12-(x6)----------8-(x6)--------|x2


d|--------------------------------|
a|-15-----------------------------|
f|---15-----------------12--------|
c|-----12-14^-11-15-14-15---15-14-|
g|--------------------------------|
c|--------------------------------|x2


d|--------------------------------|
a|--------------------------------|
f|--------------------------------|
c|-0-0--0-0--0-0--0-0--0-0--0-0---|
g|-0-0--0-0--0-0--0-0--0-0--0-0---|
c|-0-0--0-0--0-0--0-0--0-0--0-0---|
   pm--------------------------

  ...I can't remeber the last time...
d|--------------------------------|
a|--------------------------------|
f|--------------------------------|
c|--------------------------------|
g|--------------------------------|
c|-12-12-15-(x3)--12-12-15-14-----|x2


d|--------------------------------|
a|--------------------------------|
f|--------------------------------|
c|-12--12------------15--15-------|
g|-12--12------------15--15-------|
c|-12--12(x4)--------15--15(x4)---|x2

  ...I stretch myself across the world...
d|--------------------------------|
a|--------------------------------|
f|--------------------------------|
c|-12--15-15--14------------------|
g|--------------------------------|
c|--------------------------------|x8


d|--------------------------------|
a|-15-----------------------------|
f|---15-----------------12--------|
c|-----12-14^-11-15-14-15---15-14-|
g|--------------------------------|
c|--------------------------------|x2


d|--------------------------------|
a|--------------------------------|
f|--------------------------------|
c|-12---------------8-------------|
g|-12---------------8-------------|
c|-12-(x12)---------8-(x12)-------|x2


  ...I can't remeber the last time...
d|--------------------------------|
a|-----------------15-------------|
f|-------------15~---15-----------|
c|-12~--15-14-----------12-14~----|
g|--------------------------------|
c|--------------------------------|


d|--------------------------------|
a|--------------------------------|
f|--------------------------------|
c|-13-12-12-----------------------|
g|-13-12-12--(repeat this a lot)--|
c|-13-12-12-----------------------|

  ...the person I hate...
d|--------------------------------|
a|-18--17--18---------------------|
f|--------------------------------|
c|-15--14--15---------------------|
g|--------------------------------|
c|--------------------------------|


  ...I can't remeber the last time...
d|--------------------------------|
a|--------------------------------|
f|--------------------------------|
c|-15-12-15-12-(x3)--15-12-15-12--|
g|--------------------------------|
c|--------------------------------|repeat until last chorus ends

it ends with that part that fades into heroine
            
Submit corrections

↑ Back to top | Tablatures and chords for acoustic guitar and electric guitar, ukulele, drums are parodies/interpretations of the original songs. You may use it for private study, scholarship, research or language learning purposes only