Home » F » From First To Last »

From First To Last - Two As One Tabs

Artists:  A B C D E F G H I J K L M N O P Q R S T U V W X Y Z # 

Two As One Tabs

(ver. 1) Click to play this song!
From First To Last
D[-----------------------------------------------------------------------|
A[-----------------------------------------------------------------------|
F[-----------------------------------------------------------------------|
C[-----------------x1----------------------------------------------------|
G[---x3----x9-----6------------------------------------------------------|
C[--5-----8--------------------------------------------------------------|
Verse/Opening

D[-----------------------10(x3)------]
A[----------------11(x3)-------------]
F[-----------------------------------]
C[--5-----1-----8------8-----3-------]
G[--5-----1-----8------8-----3-------]
C[--5(x18)1(x6--8(x3)--8(x3)-3(x12)--]
Chorus

[-------------------------------------------]  [-----17(x3)--18(x8)--]
[--12(x3)--14(x3)---15(x4)--14(x1)--12(x1)--]  [--15(x3)-------------]
[---------------12(x3)----------------------]x2[---------------------]x2
[-------------------------------------------]  [---------------------]
[-------------------------------------------]  [---------------------]
[-------------------------------------------]  [---------------------]
Post Chorus

[--18(x6)---18(x4)--17(x6)--17(x4)--15(x6)---15(x4)--17(x6)---1-------|7(x4)
[------15(x6)----------15(x6)----------15(x6)-----------15(x6)--------|
[---------------------------------------------------------------------|  x2
[---------------------------------------------------------------------|
[---------------------------------------------------------------------|
[---------------------------------------------------------------------|
Bridge
THEN the buildup to the "Two as one.. A slight addiction"
[--18(x6)---20(x10)---22(keep picking)-----------------------------|
[------------------------------------------------------------------|
[------------------------------------------------------------------|
[------------------------------------------------------------------|
[------------------------------------------------------------------|
[------------------------------------------------------------------|

Ending
[--------11(x10)]           [----------|
[---------------]           [----------|
[---------------]x4 End on  [--14------|(Ring)
[---12(x3)------]           [----------|
[-----13(x3)----]           [----------|
[---------------]           [----------|


Song Order:

Verse
Chorus
Post Chorus
Verse
Chorus
Post Chorus
Bridge
Chorus
Ending
            
Submit corrections

↑ Back to top | Tablatures and chords for acoustic guitar and electric guitar, ukulele, drums are parodies/interpretations of the original songs. You may use it for private study, scholarship, research or language learning purposes only