Home » F » From First To Last »

From First To Last - Note To Self Bass

Artists:  A B C D E F G H I J K L M N O P Q R S T U V W X Y Z # 

Note To Self Bass

(ver. 1) Click to play this song!
From First To Last
   X2
G|--------------------------------------------------------------------------|
D|--------------------------------------------------------------------------|
A|-------------------------33333-33333-33333-33333--------------------------|
E|-22222-22222-22222-22222--------------------------------------------------|


G|--------------------------------------------------------------------------|
D|--------------------------------------------------------------------------|
A|---0-2~-----------3~------------------------------------------------------|
E|-0--------------------7~--------------------------------------------------|

   X2
G|---------------------765--------------------------------------------------|
D|------------------------765-----------------------------------------------|
A|-------3(X24)--------------75---------------------------------------------|
E|-2(X32)-------------------------------------------------------------------|

   X2
G|--------------------------------------------------------------------------|
D|--------------------------------------------------------------------------|
A|-33333-3-3-3-33333-3-3-3--------------------------------------------------|
G|--------------------------------------------------------------------------|

   X4
G|--------------------------------------------------------------------------|
D|--------------------------------------------------------------------------|
A|-2(X12)-3(X12)------------------------------------------------------------|
G|--------------222222-2-0-2--222222-2-0-2----------------------------------|

    Repeat until end of bridge
G|--------------------------------------------------------------------------|
D|--------------------------------------------------------------------------|
A|--------------------------------------------------------------------------|
E|-0000007-007-000-0000007-007-000------------------------------------------|

   X4
G|--------------------------------------------------------------------------|
D|--------------------------------------------------------------------------|
A|--------------------------------------------------------------------------|
E|-00000000/14-14-14-14-14-14-161616----------------~-----------------------|
 ^^ (14's + 16's)


G|--------------------------------------------------------------------------|
D|--------------------------------------------------------------------------|
A|--0-2~-----------3~-------------------------------------------------------|
E|-0------------------7~----------------------------------------------------|

   X2
G|---------------------765--------------------------------------------------|
D|------------------------765-----------------------------------------------|
A|-------3(X24)--------------75---------------------------------------------|
E|-2(X32)-------------------------------------------------------------------|

   X3                         end on
G|------------------------|-------------------------------------------------|
D|--------------------5~--|-------------------------------------------------|
A|------------------3-----|-----------------33-33-333-----------------------|
E|-222222-2~-222222-------|-222222-2~-222222--------------------------------|
            
Submit corrections

↑ Back to top | Tablatures and chords for acoustic guitar and electric guitar, ukulele, drums are parodies/interpretations of the original songs. You may use it for private study, scholarship, research or language learning purposes only