Home » F » From First To Last »

From First To Last - Minuet Tabs

Artists:  A B C D E F G H I J K L M N O P Q R S T U V W X Y Z # 

Minuet Tabs

(ver. 3) Click to play this song!
From First To Last
----------------------------------------------------------------------------
                             MINUET - From First To Last
----------------------------------------------------------------------------


Tuning: Standard

This is the tab note for note, it is easier but if thats the right fret and string, i 
know. hope it helps


e|-------------------------------------------------------------------------|
B|-------------------------------------------------------------------------|
G|-------------------------------------------------------------------------|
D|----7-------7--------7----7-----7------7-----5-----5-----5-----10-----7/8|
A|-------8-------8-------------8-----8-----------8-----8--------7-----7----|
E|--10-----10------10------------7-----7-----------6-----6----8-----8------|

e|-------------------------------------------------------------------------|
B|-------------------------------------------------------------------------|
G|-------------------------------------------------------------------------|
D|----7-------7--------7----7-----7------7-----5-----5-----5-----10-----7/8|
A|-------8-------8-------------8-----8-----------8-----8--------7-----7----|
E|--10-----10------10------------7-----7-----------6-----6----8-----8------|

e|-------------------------------------------------------------------------|
B|-------------------------------------------------------------------------|
G|-------------------------------------------------------------------------|
D|----------7-------7------8------8--------10------8------8---7---5--------|
A|-------8--------8------7------7--------8-------8------7-------------8----|
E|---10--------10------8------8-------6--------6------5--------------------|

e|-------------------------------------------------------------------------|
B|-------------------------------------------------------------------------|
G|----------------------------------------------------------------7/9------|
D|----------7-------7------8------8--------10------8------8---7------------|
A|-------8--------8------7------7--------8-------8------7------------------|
E|---10--------10------8------8-------6--------6------5--------------------|

e|-----------8-------------10--(10)\8------------6-------------------------|
B|---------6---6---------6-------------6-------6---6----------8------6-----|
G|-------7-------7-----7---------------------7-------7-----6-------7-------|
D|-----0-------------0---------------------8-------------7-------5---------|
A|-------------------------------------------------------------------------|
E|-------------------------------------------------------------------------|

e|-----------8-------------10--(10)\8------------6-------------------------|
B|---------6---6---------6-------------6-------6---6----------8------6-----|
G|-------7-------7-----7---------------------7-------7-----6-------7-------|
D|-----0-------------0---------------------8-------------7-------5---------|
A|-------------------------------------------------------------------------|
E|-------------------------------------------------------------------------|

e|-------------------------------------------------------------------------|
B|-----------5-----------------5-------------------------------------------|
G|-----------------------------------------------5--------------0------0---|
D|--------7-----7-----------5-----5-----------4-----4---------2------2-----|
A|----8-8----------8----7-7----------7---/5-5----------5---/3------3-------|
E|-------------------------------------------------------------------------|

e|-----------------------------------------------------------1------0------|
B|--------------------------3----------------5-----------------------------|
G|---------2----------------------------------------------2------0---------|
D|-------3---3-----------5-----5----------7-----7-------3------2-----------|
A|---1-1-------1----/3-3---------3---/5-5----------5-----------------------|
E|-------------------------------------------------------------------------|

e|-------------------------------------------------------------------------|
B|----------------------------3---------------------5----------------------|
G|---------2---------------------------------------------------------------|
D|-------3---3-------------5-----5---------------7-----7-------------------|
A|---1-1-------1------/3-3---------3--------/5-5----------5----------------|
E|-------------------------------------------------------------------------|

e|-------------------------1-----------------------------------------------|
B|-----------------------------------------------------1-------------------|
G|--------------2-----------------------------0------------------3---------|
D|----3------------------------------2---------------------------3---------|
A|---------------------------------------------------------------1---------|
E|-------------------------------------------------------------------------|

| /  slide up
| \  slide down
| h  hammer-on
| p  pull-off
| ~  vibrato
| +  harmonic
| x  Mute note
============================================================================
            
Submit corrections

↑ Back to top | Tablatures and chords for acoustic guitar and electric guitar, ukulele, drums are parodies/interpretations of the original songs. You may use it for private study, scholarship, research or language learning purposes only