Home » F » From First To Last »

From First To Last - I Once Was Lost But Now Am Profound Tabs

Artists:  A B C D E F G H I J K L M N O P Q R S T U V W X Y Z # 

I Once Was Lost But Now Am Profound Tabs

(ver. 2) Click to play this song!
From First To Last
(Intro)
Okay, so this is my first tab on this site, and i know it is correct.


The first part goes like this.

D|------------------------------------------|
A|---------------10-------------------------|
F|---7-7-10-7-10----10-9--9-9-9--6-6-6-6----| x2
C|------------------------------------------|
G|------------------------------------------|
C|------------------------------------------|


Here's the second part.

D|-------------------------------- ----------|
A|------------------10-----------------------|
F|-------7---10-----------10-----9--10--9--6-|
C|---8-8---8----8-8-----8----8-8-------------| x2
G|-------------------------------------------|
C|-------------------------------------------|


That's basically it guys, pretty easy if you slow it down.

When I get the rest of the song, I'll post it.

Enjoy!
            
Submit corrections

↑ Back to top | Tablatures and chords for acoustic guitar and electric guitar, ukulele, drums are parodies/interpretations of the original songs. You may use it for private study, scholarship, research or language learning purposes only