Home » F » Friendly Fires »

Friendly Fires - In The Hospital Bass

Artists:  A B C D E F G H I J K L M N O P Q R S T U V W X Y Z # 

In The Hospital Bass

(ver. 1) Click to play this song!
Friendly Fires
In the Hospital
Friendly Fires
Friendly Fires (2008)

Easy song, great bass line.

Main Riff:

G|------------------------------------------------------------|
D|------------------------------------------------------------|
A|--------------------------------------------------------4---|
E|--4--4--4--6-4-6----4--4--6----4--4--4--6-4-6-0/6-4-6-4---6-|


Chorus

G|--------------------------------------------------|
D|--------------------------------------------------|
A|--------------------------6-6-6-6-6-0-4-4-4-4---4-|
E|-6-6-6-6-6-0-4-4-4-4---4--------------------------|


That's it. Easy song, right? 



Rate and comment, son!
            
Submit corrections

↑ Back to top | Tablatures and chords for acoustic guitar and electric guitar, ukulele, drums are parodies/interpretations of the original songs. You may use it for private study, scholarship, research or language learning purposes only