Home » F » Frank Turner »

Frank Turner - To Take You Home Tabs

Artists:  A B C D E F G H I J K L M N O P Q R S T U V W X Y Z # 

To Take You Home Tabs

(ver. 2) Click to play this song!
Frank Turner

This is my first tab. I hope it isn't too terrible.

Tuning: DADGAD
Capo 2

Chords:
  E: 000200
  A: 020020
  B: x02202
C#m: xx4454
 A5: x05450
 Fm: 002020
G#m: 004240
  D: x30030


Intro/Verse Riff
d-----------------------------------------------------------------------|
a-----0---0---0---0---0---0---0---0------0---0---0---0---0---0---0------|
g-0h2---2---2---0--------------------0h2---2---2---4---5---4---2---0----|
d-------------------4---2---0-------------------------------------------|
a-------------------------------3---------------------------------------|
d-----------------------------------------------------------------------|

d-----------------------------------------------------------------------|
a-----0---0---0---0---0---0---0---0------0---0---0--------0---0---0-----|
g-0h2---2---2---0-------------------------------------------------------|
d-------------------4---2---0--------0h2---2---2---2--0-----0-------0---|
a-------------------------------3------------------------3------0-------|
d---------------------------------------------------------------------0-|

Mid Verse Fill
d----------------------------------|
a-------------------0---0---0---0--|
g---------------0h2---2---2---2----|
d-3----5----0----------------------|
a-3----5----0----------------------|
d-3----5----0----------------------|

Chorus:

   C#m                        A                     E
But honey I was lonely on the road, I was all on my own
   C#m                  A                     E
Hanging outside at the back of a death metal show
   C#m                             A
I saw you standing there with your hair down low
  E                      B
A kink in your step that made me want to know
C#m          A              E
If you would like to take me home
B                                          A
Who'd of thought that a French kiss from a Parisian girl could capture an
         E
English boy


Coming out of chorus
d-----------------------------------------------------------------------|
a-----0---0---0---0---0---0---0---0------0---0---0--------0---0---0-----|
g-0h2---2---2---0-------------------------------------------------------|
d-------------------4---2---0--------0h2---2---2---2--0-----0-------0---|
a-------------------------------3------------------------3------0-------|
d---------------------------------------------------------------------0-|


--{Verse 2, same as verse 1}--


Bridge:
A
Cos she was a quiet one
She was a shy one
She was the prettier at the show

On the word show, play this. I generally strum all of the strings while playing this 
two times.
d------------------------|
a------------------------|
g----55-44-22----------0-|
d-------------33-22-33---|
a------------------------|
d-00---------------------|

A
She crept up so slowly
She crept up behind me
But still she pretended that she didn't know

d------------------------|
a------------------------|
g----55-44-22----------0-|
d-------------33-22-33---|
a------------------------|
d-00---------------------|

A
But all that she thinks of me, and she kissed me
                        Fm
And she's yet to let me go
G#m         A5
though I'm far away
D
Across of sea
Fm                  G#m
I'm singing for the hope that she would
A5            B
Ever remember me


Last Chorus:

C#m                                A                        E
So honey when you're lonely on the road, you're all on your own
C#m                     A                   E
Hanging outside at the back of the country show
C#m                    A
Picture me there with hat down low
E                      B
A smile upon my face to let you know
C#m          A                E
That I would like to take you home
C#m          A                E            B
That I would like to take you home, to the hills that I know
C#m     A                E            B        C#m
I would like to take you home, to the places I go
        A                E
I would like to take you home
B                                             A
And that's the way that a French kiss from an English boy can capture a
         E
Parisian girl
            
Submit corrections

↑ Back to top | Tablatures and chords for acoustic guitar and electric guitar, ukulele, drums are parodies/interpretations of the original songs. You may use it for private study, scholarship, research or language learning purposes only