» » »

Frank Ocean - Slide On Me Tabs

Artists:  A B C D E F G H I J K L M N O P Q R S T U V W X Y Z # 

Slide On Me Tabs

(ver. 2) Click to play this song!
Frank Ocean
 Rating:
4.3/5 (15 votes)

 Slide On Me  lessons Tabs too difficult? Try these video lessons and learn fast
 
                [Intro]
e|---------------------------------------------------------------------------|
B|---------------------------------------------------------------------------|
G|------------------------------4--------------------------------------------|
D|---4--------4--------4-----------6------1------1------1------1-------------|x2
A|------6--------6--------6--4---------------2------2------2------2----------|
E|4--------4--------4-----------------0---------2------0------2--------------|

e|-----------------------------------------------------------------------------------------------------------|
B|-----------------------------------------------------------------------------------------------------------|
G|-----------------------------------------------------------------------------------------------------------|
D|--1------1------1------1------4------4------4------4------1------1------1------1------1------1-------------|
A|----2------2------2------2------6------6------6-4----6------2------2------2------2------2------2-----------|
E|0-----2------0------2------4------4------4-------------0------2------0------2------0------2----------------|


For your mentality...

e|-------------------------------------2-------------------------------------------------------------|
B|---4---------------4-----------------0--4-------4--0-----------4-------------------4---------------|
G|------6--------4------6-------4---------1-------1------x3---------6---------4---------6------------|
D|-----------6---------------6----------------------2---then---------------6-------------------------|
A|4-------4--------4------4-----------------------------------4--------4----------4--------4---------|
E|----------------------------------0---------0------------------------------------------------------|

They forgettin' that it's me...

e|---------------------------------------------------------------------------|
B|---------------------------------------------------------------------------|
G|---------------------------------------------------------------------------|
D|---4--------4--------4--------4---------1------1------1------1-------------|
A|------6--------6--------6--------6---------2------2------2------2----------|
E|4--------4--------4--------4--------0---------2------0------2--------------|

e|---------------------------------------------------------------------------|
B|---------------------------------------------------------------------------|
G|------------------------------4--------------------------------------------|
D|---4--------4--------4-----------6------1------1------1------1-------------|x2
A|------6--------6--------6--4---------------2------2------2------2----------|
E|4--------4--------4-----------------0---------2------0------2--------------|

e|---------------------------------------------------------------------------2-------------------------------|
B|---------------------------------------4-----------------4-----------------0-4--------4-0------------------|
G|------------------------------------------6--------4--------6--------4-------1--------1--------------------|
D|---4--------4--------1--------1-----------------6-----------------6---------------------2------------------|
A|------6--------6--------2--------2--4--------4--------4--------4-------------------------------------------|
E|4--------4--------0--------2--------------------------------------------0-----------0----------------------|


This is for when...
e|---------------------------------------------------------------------------|
B|---------------------------------------------------------------------------|
G|---------------------------------------------------------------------------|
D|---4--------4--------4--------4---------1------1------1------1-------------|
A|------6--------6--------6--------6---------2------2------2------2----------|
E|4--------4--------4--------4--------0---------2------0------2--------------|

e|---------------------------------------------------------------------------|
B|---------------------------------------------------------------------------|
G|------------------------------4--------------------------------------------|
D|---4--------4--------4-----------6------1------1------1------1-------------|
A|------6--------6--------6--4---------------2------2------2------2----------|
E|4--------4--------4-----------------0---------2------0------2--------------|

e|---------------------------------------------------------------------------|
B|---------------------------------------------------------------------------|
G|------------------------------4--------------------------------------------|
D|---4--------4--------4-----------6------1------1---------------------------|
A|------6--------6--------6--4---------------2------2------------------------|
E|4--------4--------4-----------------0---------2----------------------------|


[This plays in the background at some parts. You can hear it better at the end.]
e|---------------------------------------------------------------------------|
B|---------------------------------------------------------------------------|
G|---------------------------------------------------------------------------|
D|---------------------------------------------------------------------------|
A|00--22-------------00------77----------------------------------------------|
E|--------22-------------66--------------------------------------------------|            
Submit corrections


        Slide On Me  lessons Hard to play? Try these video lessons and learn fast Slide On Me  lessons
        
↑ Back to top | Tablatures and chords for acoustic guitar and electric guitar, ukulele, drums are parodies/interpretations of the original songs. You may use it for private study, scholarship, research or language learning purposes only