» » »

Frank Black - I Heard Ramona Sing Tabs

Artists:  A B C D E F G H I J K L M N O P Q R S T U V W X Y Z # 

I Heard Ramona Sing Tabs

(ver. 1) Click to play this song!
Frank Black
 Rating:
4.4/5 (7 votes)

 I Heard Ramona Sing lessons Tabs too difficult? Try these video lessons and learn fast
 
                (Intro)


  3/4
  Acoustic Guitar
                    PM----|                     PM----|
   E E E E E E   E E E E E E   E E E E E E   E E E E E E
e|-------------|-------------|-------------|-------------|
B|-------------|-------------|-------------|-------------|
G|-7-6-7-4-5-4-|-5-2-2-2-2-2-|-7-6-7-4-5-4-|-5-2-2-2-2-2-|
D|-7-7-7-5-5-5-|-5-3-3-3-3-3-|-7-7-7-5-5-5-|-5-3-3-3-3-3-|
A|-------------|-------------|-------------|-------------|
E|-------------|-------------|-------------|-------------|


  Distortion Guitar
    H     E  E    E  E  +Q       +Q
e|-14----15-14-|-15-15-(15)b17r=(15)b17r=|
B|-------------|-------------------------|
G|-------------|-------------------------|
D|-------------|-------------------------|
A|-------------|-------------------------|
E|-------------|-------------------------|


 
    H     E  E    E  E  +Q       +Q
e|-14----15-14-|-15-15-(15)b17r=(15)b17r=|
B|-------------|-------------------------|
G|-------------|-------------------------|
D|-------------|-------------------------|
A|-------------|-------------------------|
E|-------------|-------------------------|



    H     E  E    E  E  +E      +E   Q     H     E  E    E  E  +E      +E   Q
e|-10----12-10-|-12-12-(12)b14r(12)-10--|-10----12-10-|-12-12-(12)b14r(12)-10---|
B|-------------|------------------------|-------------|-------------------------|
G|-------------|------------------------|-------------|-------------------------|
D|-------------|------------------------|-------------|-------------------------|
A|-------------|------------------------|-------------|-------------------------|
E|-------------|------------------------|-------------|-------------------------|


  4/4
   H     E  E  E   E    +H      E  E  E  E
e|------18-17-15--12-|-(12)----18-17-15-20-|
B|-------------------|---------------------|
G|-------------------|---------------------|
D|-------------------|---------------------|
A|-------------------|---------------------|
E|-------------------|---------------------|


    +H      E  E  E  E    +H      E  E  E  E
e|-(20)----18-17-15-11-|-(11)----18-17-15-13-|
B|---------------------|---------------------|
G|---------------------|---------------------|
D|---------------------|---------------------|
A|---------------------|---------------------|
E|---------------------|---------------------|


    +H      E  E  E  E    +H      E  E  E  E    +W            W
e|-(13)----18-17-15-10-|-(10)----18-17-15-12-|-(12)--------|-11----|
B|---------------------|---------------------|-------------|-------|
G|---------------------|---------------------|-------------|-------|
D|---------------------|---------------------|-------------|-------|
A|---------------------|---------------------|-------------|-------|
E|---------------------|---------------------|-------------|-------|
            
Submit corrections


        I Heard Ramona Sing lessons Hard to play? Try these video lessons and learn fast I Heard Ramona Sing lessons
        
↑ Back to top | Tablatures and chords for acoustic guitar and electric guitar, ukulele, drums are parodies/interpretations of the original songs. You may use it for private study, scholarship, research or language learning purposes only