Home » F » Franco »

Franco - Touch The Sky Bass

Artists:  A B C D E F G H I J K L M N O P Q R S T U V W X Y Z # 

Touch The Sky Bass

(ver. 1) Click to play this song!
Franco
 Rating:
4/5 (4 votes)
                                                Franco
                             Touch the Sky
                                Franco


Tuning:
C# - 4th
G# - 3rd
C# - 2nd
F# - 1st


                             INTRO

F#|-----||--------------------------------|-------------||
C#|-----||--------------------------------|-------------||
G#|-----||--------------------------------|-------------||
C#|--5--||--6-5-0-6-5-0-6-5-0-6-5-0-3-0-1-|-(1)~~~~~~---||

                             VERSE
F#|-----||----------------------------------|-------------||
C#|-----||---------------------5----------55|-------------||
G#|-----||-----5------5--3--3h6---3--33h6---|-------------||
C#|--5--||--5h8---55h8----------------------|-------------||
                       
                            REFRAIN
F#|-----||--------------------------------|-------------||
C#|-----||--------------------------------|-------------||
G#|-----||--------------------------------|-------------||
C#|--5--||--6-5-0-6-5-0-6-5-0-6-5-0-3-0-1-|-(1)~~~~~~---||

                            CHORUS
F#|-----||--------------------------------|-------------||
C#|-----||--------------------------------|-------------||
G#|-----||--------------------------------|-------------||
C#|-8---||----0------------5--------------|-------1-----||

                            BRIDGE (Adlib)
F#|-----||--------------------------------|-------------||
C#|-----||--------------------------------|-------------||
G#|-----||--------------------------------|-------------||
C#||---3-3---3-3---3-3---3-3-3-3-3-3--|---3-3---3-3---3-3---3-3-3-3-3-3--|

F#|-----||--------------------------------|-----------------------------||
C#|-----||--------------------------------|-----------------------------||
G#|-----||--------------------------------|-----------------------------||
C#|---1-1---1-1---1-1---1-1-1-1-1-1--|---1-1---1-1---1-1---1-1-1-1-1-1--|

F#|-----||---------------------------|---------------------------------||
C#|-----||---------------------------|---------------------------------||
G#|---3-3---3-3---3-3---3-3-3-3-3-3--|---3-3---3-3---3-3---3-3-3-3-3---|
C#|----------------------------------|-------------------------------1-|

F#|-----||--------------------------------|----------------------||
C#|-----||--------------------------------|----------------------||
G#|-----||--------------------------------|----------------------||
C#||---5---5---3h5-3h5---5---5-5--|--5---5---3h5-3h5---5---5-5-0-|

F#|-----||--------------------------------|---------------------||
C#|-----||--------------------------------|---------------------||
G#|-----||--------------------------------|---------------------||
C#|--1---1---3-1-0h1---1---1-1--|--1---1---3-1-0h1---1---1-1-3--||

                             OUTRO
F#|-----||--------------------------------|--------------------||
C#|-----||--------------------------------|--------------------||
G#|-----||--------------------------------|--------------------||
C#|--5---5---3h5-3h5---5---5-5--|--5---5---3h5-3h5---5---5-5-0-|

F#|-----||--------------------------------|-------------------||
C#|-----||--------------------------------|-------------------||
G#|-----||--------------------------------|-------------------||
C#|-5---5---3h5-3h5---5---5-5--|--5---5---3h5-3h5---5---5-5---||
            
Submit corrections

↑ Back to top | Tablatures and chords for acoustic guitar and electric guitar, ukulele, drums are parodies/interpretations of the original songs. You may use it for private study, scholarship, research or language learning purposes only