Home » F » Franco »

Franco - Touch The Sky Tabs

Artists:  A B C D E F G H I J K L M N O P Q R S T U V W X Y Z # 

Touch The Sky Tabs

(ver. 1) Click to play this song!
Franco
 Rating:
4/5 (8 votes)
                Tuning: Half-step down (dropped)




INTRO

I.

Guitar 1
     S      S S S S S S S S S S S S S S S    W
           4/4
eb|-----||--------------------------------|-------------||
Bb|-----||o-------------------------------|------------o||
Gb|-----||--------------------------------|-------------||
Db|--5--||--6-5-0-6-5-0-6-5-0-6-5-0-3-0-1-|-(1)~~~~~~---||
Ab|--5--||o-6-5-0-6-5-0-6-5-0-6-5-0-3-0-1-|-(1)~~~~~~--o||
Db|--5--||--6-5-0-6-5-0-6-5-0-6-5-0-3-0-1-|-(1)~~~~~~---||


Guitar 2
     S      S S S S S S S S S S S S S S S    Q     Q    Q    Q     Q     Q    Q    Q
                                           [1.-----------------] [2.-----------------||
eb|-----||--------------------------------|---------------------|--------------------||
Bb|-----||o-------------------------------|--------------------o|--------------------||
Gb|-----||--------------------------------|--------10---7----5--|--------5----7------||
Db|--5--||--6-5-0-6-5-0-6-5-0-6-5-0-3-0-1-|-(1)----x----x----x--|-(1)----x----x----1-||
Ab|--5--||o-6-5-0-6-5-0-6-5-0-6-5-0-3-0-1-|-(1)----8----5----3-o|-(1)----3----5----1-||
Db|--5--||--6-5-0-6-5-0-6-5-0-6-5-0-3-0-1-|-(1)-----------------|-(1)--------------1-||

II.

Guitar 1
     S      S S S S S S S S S S S S S S S    W

eb|-----||--------------------------------|-------------||
Bb|-----||o-------------------------------|------------o||
Gb|-----||--------------------------------|-------------||
Db|--5--||--6-5-0-6-5-0-6-5-0-6-5-0-3-0-1-|-(1)~~~~~~---||
Ab|--5--||o-6-5-0-6-5-0-6-5-0-6-5-0-3-0-1-|-(1)~~~~~~--o||
Db|--5--||--6-5-0-6-5-0-6-5-0-6-5-0-3-0-1-|-(1)~~~~~~---||

Guitar 2
     S      S S S S S S S S S S S S S S S S S S

eb|-----||-----------------------------------|
Bb|-----||o---------------------------------o|
Gb|--5--||--7-7-7-7-9-9-9-9-8-8-8-8-7-7-7-5--|
Db|--x--||--x-x-x-x-x-x-x-x-x-x-x-x-x-x-x-x--|
Ab|--3--||o-3-3-3-3-5-5-5-5-6-6-6-6-5-5-5-3-o|
Db|-----||-----------------------------------|

    S S S S S S S S S S S S S S S S    S  S  S  S  S S S S S S S S S S S

eb|----------------------------------|-------------------------------------||
Bb|----------------------------------|-------------------------------------||
Gb|-5-5-5-7-7-7-7-7-8-8-8-8-7-7-7s10-|-10-10-10-10-8-8-8-8-7-7-7-7-8-8-8/--||
Db|-x-x-x-x-x-x-x-x-x-x-x-x-x-x-x-x--|-x--x--x--x--x-x-x-x-x-x-x-x-x-x-x/--||
Ab|-3-3-3-3-5-5-5-5-6-6-6-6-5-5-5s8--|-8--8--8--8--6-6-6-6-5-5-5-5-6-6-6/--||
Db|----------------------------------|-------------------------------------||


VERSE

Guitar 1
      e   e   e   e   e   e   e   s s    e   e   e   e   e   e   e   s s

eb||--x---3---x---3---x---3---x---x-3--|-x-------x-------x-------x---x-----||
Bb||o-x---3---x---3---x---3---x---x-3--|-x---4---x---4---x---4---x---x-4--o||
Gb||--x-------x-------x-------x---x----|-x---5---x---5---x---5---x---x-5---||
Db||-----------------------------------|-----------------------------------||
Ab||o----------------------------------|----------------------------------o||
Db||-----------------------------------|-----------------------------------||

Guitar 2
      e   e   e   e   e   e   e   s s    e   e   e   e   e   e   e   s s

eb||--x---x---x---x---x---x---x---x-x--|-x---x---x---x---x---x---x---x-x--||
Bb||o-x---x---x---x---x---x---x---x-x--|-x---x---x---x---x---x---x---x-x-o||
Gb||--x---x---x---x---x---x---x---x-x--|-x---x---x---x---x---x---x---x-x--||
Db||-----------------------------------|----------------------------------||
Ab||o----------------------------------|---------------------------------o||
Db||-----------------------------------|----------------------------------||


REFRAIN

Guitars 1 & 2
     S      S S S S S S S S S S S S S S S    W

eb|-----||--------------------------------|-------------||
Bb|-----||o-------------------------------|------------o||
Gb|-----||--------------------------------|-------------||
Db|--5--||--6-5-0-6-5-0-6-5-0-6-5-0-3-0-1-|-(1)~~~~~~---||
Ab|--5--||o-6-5-0-6-5-0-6-5-0-6-5-0-3-0-1-|-(1)~~~~~~--o||
Db|--5--||--6-5-0-6-5-0-6-5-0-6-5-0-3-0-1-|-(1)~~~~~~---||


CHORUS

Guitars 1 & 2
     S       H                   Q   E.    S    H                      Q   E.   S

eb|-----||-----------------------------------|------------------------------------|
Bb|-----||-----------------------------------|------------------------------------|
Gb|-----||-----------------------------------|------------------------------------|
Db|--8--||--(8)----------------------------0-|-(0)------------------------------5-|
Ab|--8--||--(8)----------------------------0-|-(0)------------------------------5-|
Db|--8--||--(8)----------------------------0-|-(0)------------------------------5-|

     H                   Q   E.    S    H                      Q   E.
eb|----------------------------------|-----------------------------------|
Bb|----------------------------------|-----------------------------------|
Gb|----------------------------------|-----------------------------------|
Db|-(5)----------------------------1-|-(1)----------------------1---3----|
Ab|-(5)----------------------------1-|-(1)----------------------1---3----|
Db|-(5)----------------------------1-|-(1)----------------------1---3----|


INTERLUDE

Guitar 1
     S      S S S S S S S S S S S S S S S    W

eb|-----||--------------------------------|-------------||
Bb|-----||o-------------------------------|------------o||
Gb|-----||--------------------------------|-------------||
Db|--5--||--6-5-0-6-5-0-6-5-0-6-5-0-3-0-1-|-(1)~~~~~~---||
Ab|--5--||o-6-5-0-6-5-0-6-5-0-6-5-0-3-0-1-|-(1)~~~~~~--o||
Db|--5--||--6-5-0-6-5-0-6-5-0-6-5-0-3-0-1-|-(1)~~~~~~---||

Guitar 2
     S       S  S S S S S S S S S S  S  S S S S     S  S S S S S S  S  S S S S S S S S    W
                                               x3
eb|-----||---------------------------------------|-------------------------------------||--------|
Bb|-----||o-------------------------------------o|-------------------------------------||--------|
Gb|-----||--------7-7-----8-8-----10-10---7-8----|-------7-7-8-8-10-10-8-8-7-7-8-8-----||--------|
Db|--8--||--(8)-8-----8-8-----8-8-------8-----8--|-(8)-8---------------------------8-8-||-7~~~~~~|
Ab|-----||o-------------------------------------o|-------------------------------------||--------|
Db|-----||---------------------------------------|-------------------------------------||--------|


VERSE 2

Guitar 1
                         W                  W               E    E    E    E    E    E    E  E

eb||------------------|------------------|---------------|-------------------------------------|
Bb||------------------|------------------|---------------|-------------------------------------|
Gb||------------------|--10~~~~~---------|--12~~~~~~~----|--10---10---10---10---9----9----9----|
Db||------------------|--8~~~~~~---------|--10~~~~~~~----|--8----8----8----8----7----7----7----|
Ab||------------------|--8~~~~~~---------|--10~~~~~~~----|--8----8----8----8----7----7----7----|
Db||------------------|------------------|---------------|-------------------------------------|

Guitar 1
     e   e   e   e   e   e   e   s s    e   e   e   e   e   e   e   s s

eb|--x---3---x---3---x---3---x---x-3--|-x-------x-------x-------x---x--------|
Bb|o-x---3---x---3---x---3---x---x-3--|-x---4---x---4---x---4---x---x-4-----o|
Gb|--x-------x-------x-------x---x----|-x---5---x---5---x---5---x---x-5------|
Db|-----------------------------------|--------------------------------------|
Ab|o----------------------------------|-------------------------------------o|
Db|-----------------------------------|--------------------------------------|

Guitar 2
     e   e   e   e   e   e   e   s s    e   e   e   e   e   e   e   s s

eb|--x---x---x---x---x---x---x---x-x--|-x---x---x---x---x---x---x---x-x--|
Bb|o-x---x---x---x---x---x---x---x-x--|-x---x---x---x---x---x---x---x-x-o|
Gb|--x---x---x---x---x---x---x---x-x--|-x---x---x---x---x---x---x---x-x--|
Db|-----------------------------------|----------------------------------|
Ab|o----------------------------------|---------------------------------o|
Db|-----------------------------------|----------------------------------|

Guitar 1
     e   e   e   e   e   e   e   s s    e   e   e   e   e   e   e   s s

eb|--x---3---x---3---x---3---x---x-3--|-x-------x-------x-------x---x-----||
Bb|o-x---3---x---3---x---3---x---x-3--|-x---4---x---4---x---4---x---x-4--o||
Gb|--x-------x-------x-------x---x----|-x---5---x---5---x---5---x---x-5---||
Db|-----------------------------------|-----------------------------------||
Ab|o----------------------------------|----------------------------------o||
Db|-----------------------------------|-----------------------------------||

Guitar 2
     S S S S S S S e   S S S S S S S    S S S S S S S e  S S S S S S S S
                                       [1.-------------------------------------||
eb|-----------------------------------|----------------------------------------||
Bb|o----------------------------------|--------------------------------------o-||
Gb|-----------------------------------|---3-5-5-3-3-5-5----3-5-5-3-3-5-5-------||
Db|----3-5-5-3-3-5-5---3-5-5-3-3-5-5--|----------------------------------------||
Ab|o----------------------------------|--------------------------------------o-||
Db|-----------------------------------|----------------------------------------||

    S S S S S S S e  S S S S S S S S
   [2.--------------------------------------||
eb|-----------------------------------------||
Bb|-----------------------------------------||
Gb|---3-5-5-3-3-5-5----3-5-5-3--------------||
Db|----------------------------5-0-1~~~-----||
Ab|--------------------------------1~~~-----||
Db|--------------------------------1~~~-----||

CHORUS

Guitars 1 & 2
     S       H                   Q   E.    S    H                      Q   E.   S

eb|-----||-----------------------------------|------------------------------------|
Bb|-----||-----------------------------------|------------------------------------|
Gb|-----||-----------------------------------|------------------------------------|
Db|--8--||--(8)----------------------------0-|-(0)------------------------------5-|
Ab|--8--||--(8)----------------------------0-|-(0)------------------------------5-|
Db|--8--||--(8)----------------------------0-|-(0)------------------------------5-|

     H                   Q   E.    S    W

eb|----------------------------------|-----------------------------------||
Bb|----------------------------------|----------------------------------o||
Gb|----------------------------------|-----------------------------------||
Db|-(5)----------------------------1-|-(1)-------------------------------||
Ab|-(5)----------------------------1-|-(1)------------------------------o||
Db|-(5)----------------------------1-|-(1)-------------------------------||


BRIDGE

Guitars 1 & 2
     S S e   S e   S e   S S S S S S    S S e   S e   S e   S S S S S S

eb||----------------------------------|----------------------------------|
Bb||----------------------------------|----------------------------------|
Gb||----------------------------------|----------------------------------|
Db||---3-3---3-3---3-3---3-3-3-3-3-3--|---3-3---3-3---3-3---3-3-3-3-3-3--|
Ab||---3-3---3-3---3-3---3-3-3-3-3-3--|---3-3---3-3---3-3---3-3-3-3-3-3--|
Db||---3-3---3-3---3-3---3-3-3-3-3-3--|---3-3---3-3---3-3---3-3-3-3-3-3--|

    S S e   S e   S e   S S S S S S    S S e   S e   S e   S S S S S S

eb|----------------------------------|----------------------------------|
Bb|----------------------------------|----------------------------------|
Gb|----------------------------------|----------------------------------|
Db|---1-1---1-1---1-1---1-1-1-1-1-1--|---1-1---1-1---1-1---1-1-1-1-1-1--|
Ab|---1-1---1-1---1-1---1-1-1-1-1-1--|---1-1---1-1---1-1---1-1-1-1-1-1--|
Db|---1-1---1-1---1-1---1-1-1-1-1-1--|---1-1---1-1---1-1---1-1-1-1-1-1--|

    S S e   S e   S e   S S S S S S    S S e   S e   S e   S S S S S S

eb|----------------------------------|----------------------------------|
Bb|----------------------------------|----------------------------------|
Gb|---5-5---5-5---5-5---5-5-5-5-5-5--|---5-5---5-5---5-5---5-5-5-5-5----|
Db|---5-5---5-5---5-5---5-5-5-5-5-5--|---5-5---5-5---5-5---5-5-5-5-5-1--|
Ab|---3-3---3-3---3-3---3-3-3-3-3-3--|---3-3---3-3---3-3---3-3-3-3-3-1--|
Db|----------------------------------|-------------------------------1--|

     H                   Q   E.    S    W

eb|----------------------------------|----------------------------------||
Bb|----------------------------------|----------------------------------||
Gb|----------------------------------|----------------------------------||
Db|-(1)----------------------------3-|-(3)------------------------------||
Ab|-(1)----------------------------3-|-(3)------------------------------||
Db|-(1)----------------------------3-|-(3)------------------------------||

Guitar 1

    S S S S S S S S S S S S S S S S    S S S S S S S S S S S S S S S S

eb|----------------------------------|---------------------------------||
Bb|----------------------------------|---------------------------------||
Gb|-3-3-3-3-2-2-2-2------------------|---------2-2-2-2-3-3-3-3-5-5-5-5-||
Db|-----------------5-5-5-5-3-3-3-3--|-5-5-5-5-------------------------||
Ab|----------------------------------|---------------------------------||
Db|----------------------------------|---------------------------------||


SOLO

Guitar 2

       e   e   S S S e   e   S E     e   e   S S S e   e   S S S
    7/8
eb||------------------------------|------------------------------|
Bb||o-----------------------------|------------------------------|
Gb||------------------------------|------------------------------|
Db||---5---5---3h5-3h5---5---5-5--|--5---5---3h5-3h5---5---5-5-0-|
Ab||o--5---5---3h5-3h5---5---5-5--|--5---5---3h5-3h5---5---5-5-0-|
Db||---5---5---3h5-3h5---5---5-5--|--5---5---3h5-3h5---5---5-5-0-|

     e   e   S S S e   e   S E     e   e   S S S e   e   S S S

eb|-----------------------------|-------------------------------||
Bb|-----------------------------|------------------------------o||
Gb|-----------------------------|-------------------------------||
Db|--1---1---3-1-0h1---1---1-1--|--1---1---3-1-0h1---1---1-1-3--||
Ab|--1---1---3-1-0h1---1---1-1--|--1---1---3-1-0h1---1---1-1-3-o||
Db|--1---1---3-1-0h1---1---1-1--|--1---1---3-1-0h1---1---1-1-3--||


Guitar 1

     E  Q.      Q        S   S    Q    S S S S E.    S S S
    7/8
eb||----------------------------|--------------------------|
Bb||----------------------------|--------------------6---6-|
Gb||---5b7-----5b7~~~--5b7r5p3h-|-5~~--3---3-5s7~~~----7---|
Db||----------------------------|--------5-----------------|
Ab||----------------------------|--------------------------|
Db||----------------------------|--------------------------|

     T S S E  Q.   Q    Q      Q      S  S  S    E.

eb|------------------|--------------------------------|
Bb|--8p6---6--8~~~~~~|--11/---/13/---/15-13-11-13b15--|
Gb|------7-----------|--------------------------------|
Db|------------------|--------------------------------|
Ab|------------------|--------------------------------|
Db|------------------|--------------------------------|

    S    Q   S  E   T  T  T  T  T  T  T  T  T  T  T  T

eb|-13---------------------------------------------------|
Bb|~~~-15r13-11-13--13p11----------11h13p11----------11h-|
Gb|-----------------------12-10-12----------12-10-12-----|
Db|------------------------------------------------------|
Ab|------------------------------------------------------|
Db|------------------------------------------------------|

                         |--6---|                   |--6---|
    T  T  T  T  T  T  T  T  T  T  T  T  T  T  T  T  T  T  T  T  T  T  T  T  T  T  T  T  T

eb|----------------------10h13p10----------------10h13s15p13-------------------------------|
Bb|-13p11----------11h13----------13p11----11h13-------------15-13-------11-13-11----------|
Gb|-------12-10-12----------------------12-------------------------15-12----------12-10----|
Db|-------------------------------------------------------------------------------------10-|
Ab|----------------------------------------------------------------------------------------|
Db|----------------------------------------------------------------------------------------|

    E   E   S  E. S  S  S  S  S  S    S  E  S S  S   S   S  S  S

eb|---------------------------------|------------------------------|
Bb|---13b15-11-13-11----11----------|------------------------------|
Gb|------------------12----12-10----|-10---------------------------|
Db|------------------------------12-|----10-8----8-10s12-10----10--|
Ab|---------------------------------|---------10------------12-----|
Db|---------------------------------|------------------------------|

      H     Q.

eb|-------------||
Bb|-------------||
Gb|-10s12~~~~~/-||
Db|-------------||
Ab|-------------||
Db|-------------||


(Repeat Chorus)


OUTRO

Guitar 2

      e   e   S S S e   e   S E     e   e   S S S e   e   S S S

eb||-----------------------------|------------------------------|
Bb||-----------------------------|------------------------------|
Gb||-----------------------------|------------------------------|
Db||--5---5---3h5-3h5---5---5-5--|--5---5---3h5-3h5---5---5-5-0-|
Ab||--5---5---3h5-3h5---5---5-5--|--5---5---3h5-3h5---5---5-5-0-|
Db||--5---5---3h5-3h5---5---5-5--|--5---5---3h5-3h5---5---5-5-0-|

    e   e   S S S e   e   S E     e   e   S S S e   e   S E

eb|----------------------------|------------------------------||
Bb|----------------------------|------------------------------||
Gb|----------------------------|------------------------------||
Db|-5---5---3h5-3h5---5---5-5--|--5---5---3h5-3h5---5---5-5---||
Ab|-5---5---3h5-3h5---5---5-5--|--5---5---3h5-3h5---5---5-5---||
Db|-5---5---3h5-3h5---5---5-5--|--5---5---3h5-3h5---5---5-5---||


Guitar 1
      S  S S  S S  S  S S S S  S S  S S   S  S S  S S  S  S S S S  S S  E
    7/8
eb||------------------------------------|--------------------------------------*||
Bb||o-----------------------------------|-------------------------------------o*||
Gb||--10-0-12-0-14h15-0-7-0-10-0-12-0-0-|-10-0-12-0-14h15-0-7-0-10-0-15-14~~---*||
Db||------------------------------------|--------------------------------------*||
Ab||o-----------------------------------|-------------------------------------o*||
Db||------------------------------------|--------------------------------------*||


Duration Legend
---------------
W - whole;
H - half;
Q - quarter;
E - 8th;
S - 16th;
T - 32nd;
X - 64th;
a - acciaccatura
+ - note tied to previous;
. - note dotted;
.. - note double dotted
Uncapitalized letters represent notes that are staccato (1/2 duration)
Irregular groupings are notated above the duration line
Duration letters will always appear directly above the note/fret number it represents the
duration for.  Duration letters with no fret number below them represent rests.  Multi-
bar rests are notated in the form Wxn, where n is the number of bars to rest for.  Low
melody durations appear below the staff

Tablature Legend
----------------
 h   - hammer-on
 p   - pull-off
 b   - bend
 pb  - pre-bend
 r   - bend release (if no number after the r, then release immediately)
 /\  - slide into or out of (from/to "nowhere")
 s   - legato slide
 S   - shift slide
  - natural harmonic
[n]  - artificial harmonic
n(n) - tapped harmonic
 ~   - vibrato
 tr  - trill
 T   - tap
 TP  - trem. picking
 PM  - palm muting
\n/  - tremolo bar dip; n = amount to dip
 \n  - tremolo bar down
 n/  - tremolo bar up
/n\  - tremolo bar inverted dip
 =   - hold bend; also acts as connecting device for hammers/pulls
 <>  - volume swell (louder/softer)
 x   - on rhythm slash represents muted slash
 o   - on rhythm slash represents single note slash

Misc Legend
-----------
 |  - bar
||  - double bar
||o - repeat start
o|| - repeat end
*|  - double bar (ending)
 :  - bar (freetime)
 $  - Segno
 &  - Coda

Tempo markers -  = BPM(8/16=s8/s16), where s8 = swing 8ths, s16 = swing 16ths
            
Submit corrections

↑ Back to top | Tablatures and chords for acoustic guitar and electric guitar, ukulele, drums are parodies/interpretations of the original songs. You may use it for private study, scholarship, research or language learning purposes only