» » »

Franco - A Beautiful Diversion Tabs

Artists:  A B C D E F G H I J K L M N O P Q R S T U V W X Y Z # 

A Beautiful Diversion Tabs

(ver. 1) Click to play this song!
Franco
 Rating:
4.3/5 (26 votes)

 A Beautiful Diversion lessons Tabs too difficult? Try these video lessons and learn fast
 
                
[Intro]
(Am i the only one... -up to end- ...on this ride)

E|---------------|             |-----------xx---|
B|---------------|             |-----------xx---|
G|---------------|             |-----------xx---|
D|--7--4---------| (REPEAT 3x) |--7--4-----xx---| (end of intro)
A|--5--2---------|             |--5--2-----xx---|
D|---------------|             |-----------xx---|

[Verse]
(..Fallin' in and fallin' out the straight line.. -up to- ... on this ride)

E|--------------------|
B|--------------------|
G|------4-------4--4--|
D|--0---4---0---4--x--| (REPEAT 2x)
A|--0---2---0---2--2--| 
D|--0-------0---------|

[Chorus]
(..Fallin' in and fallin' out, i'm paddling in and Lord... -up to- ...no one else)

E|--------------------------------------|
B|--------------------------------------|
G|--------------------------------------|
D|--5----2----0----2----5----0----2----5| 
A|--5----2----0----2----5----0----2----5|
D|--5----2----0----2----5----0----2----5|

[Chorus 2nd part]
(..Caught a wave this moment...)

E|-------------------------------------------------------------|
B|-------------------------------------------------------------|
G|-------------------------------------------------------------|
D|---------9------11------5------------------------------------|
A|---------9------11------5------------------------------------|
D|---------9------11------5------------------------------------|

[Breakdown]
(..I feel alive...)

E|---------------------------------------------------------------------------------------------------------|
B|---------------------------------------------------------------------------------------------------------|
G|---------------------------------------------------------------------------------------------------------|
D|-------------------------------------------------------------------------------------------------------5-| 
A|-0-4-5-0-2-0-----------------0-4-5-0-2-0-------------0-4-5-0-2-0-----------------0-4-5-0-2-0-----------5-|
D|-------------0-2-0-4-0-5-0-7-------------0-2-0-4-0-5-------------0-2-0-4-0-5-0-7-------------0-2-0-4-0-5-|

[Verse]
(..Hey there, how are you... -up to- ...shell be pure and true..)

E|-------------------------------| |------------------------------------------------------|
B|-------------------------------| |------------------------------------------------------|
G|-------------------------------| |-------------9--9/11-11-11--------------6-4/6-6-6-----|
D|--5---0---2-----------------5--| |--------0----x--x/x--x--x------------0--x-x/x-x-x-----|(REPEAT 6x)
A|--5---0---2--(REPEAT 3x)----5--| |------4-0----7--7/9--9--9----------4-0--4-2/4-4-4-----|
D|--5---0---2-----------------5--| |--4-5---0----------------------4-5---0----------------|

[Bridge]

  (...Riding the waves...)              (...making this moment free your mind...)
E|-----------------------------------| |----------------------------------------------|
B|-----------------------------------| |----------------------------------------------|
G|-----------------------------------| |----------------------------------------------|
D|--5---7---0---2---5----------------| |--0---2---5-----------------------------------|
A|--5---7---0---2---5---(repeat 2x)--| |--0---2---5---(repeat 2x)---------------------|
D|--5---7---0---2---5----------------| |--0---2---5-----------------------------------|

[Outro]

E|----------------------------------------------------------------|           |------------------|
B|----------------------------------------------------------------|           |------------------|
G|-------------------------9-11-11-11---------------------4/6-6-6-|           |--------------9---|
D|-------------------------x/x--x--x----------------------x/x-x-x-|(REPEAT 4x)|--------------7---|(END)
A|-------------------------7/9--9--9----------------------2/4-4-4-|           |--------------7---|
D|--4-0-0-5-0-0-7-0-0-9-0-------------4-0-0-5-0-0-7-0-0-4---------|           |4-0-0-5-0-0---7---|            
Submit corrections


        A Beautiful Diversion lessons Hard to play? Try these video lessons and learn fast A Beautiful Diversion lessons
        
↑ Back to top | Tablatures and chords for acoustic guitar and electric guitar, ukulele, drums are parodies/interpretations of the original songs. You may use it for private study, scholarship, research or language learning purposes only