» » »

Francisco Tarrega - Pavana Tabs

Artists:  A B C D E F G H I J K L M N O P Q R S T U V W X Y Z # 

Pavana Tabs

(ver. 1) Click to play this song!
Francisco Tarrega
 Rating:
4/5 (4 votes)

 Pavana lessons Tabs too difficult? Try these video lessons and learn fast
 
                E-|---Song:-Pavana---------------------------------|
A-|---Composer:-Francisco Tarrega------------------|
D-|---Transcription-by:Christian Liang-------------|
E-|---Enjoy!---------------------------------------|


                Pavana- Francisco Tarrega (1852-1909)


[1] Part A                                    II.........
E||-7-/-12--11--9--||-7-h-9-p-7-------0-------2-h-4-h-2-|
B||----------------||--------------9-----4----4---------|
G||----------------||-------------------------2---------|
D||----------------||-----------------------------------|
A||----------------||--------------------2--------------|
E||----------------||-0---------------------------------|

L   4 / 4   3   1     1 h 3 p 1    3     3    1 h 4 h 1
                                         1    3
                                              1

[3]
                    IV..................
E|-----------0-h-2--4-h-5-|-4--------------4-/-9-|
B|-0----------------------|----------------------|
G|------1----1-h-2--4-h-6-|-4----------4---4-/-9-|
D|------2-----------------|---------6------------|
A|------------------------|-------7--------------|
E|-0----------------------|-0--7-----------------|

L       1    1  3   1   2   1  3  4  2  1   3 / 3
        2       2   1   3   1               2 / 2


[5]
   VII.........                                          II.........

E|-7h9p7---------7--12--11--9--|-7-h-9-p-7-------0-------2-h-4-h-2-|
B|----------7------------------|--------------9-----4----4---------|
G|----------8------------------|-------------------------2---------|
D|----------7------------------|-----------------------------------|
A|-----------------------------|--------------------2--------------|
E|-7---------------------------|-0---------------------------------|

L  1h3p1    1    1  4    4   3   1 h 3 p 1    3     3    1 h 4 h 1
   1        2                                       1    3
            1                                            1

[7]          II.........        IV......     II..

E|--------------------2-|----0--4-h-5---4----2--|-0---------------||
B|-0---------2-h-4--5---|-0------------------4--|-0---------------||
G|------1---------------|-1-----4-h-6---4----2--|-1--------------*||
D|------2----2----------|-----------------------|----------------*||
A|-----------0----------|-2------------------2--|-----------------||
E|-0--------------------|-----------------------|-0---------------||

L       1    1 h 3  4 1   1     1   2   1    1    1
        2    1            2     1   3   1    3
                                             1
					     1


[10] Part B

             IV..........................                    slide->
E||--------- 7--||--7--6--4-----4-h-6-p-4-----|------------------------|
B||--4-/-7---4--||--5--------7----------------|--2p---0----0--4--7--14-|
G||*---------4--||--6----------------------3--|------------------------|
D||*------------||--------------4----------2--|--1---------------------|
A||-------------||----------------------------|--2---------------------|
E||-------------||----------------------------|------------------------|

L    3 / 3   4      4  4  1  4  1   3   1  2     3            1  4/ 4
             1      2           1          1     1
             1      3                            2

[13]
                   II...
E|--------------------------|------------0--2--4--6--7-|
B|-12-h-14-p-12----2-\-5----|-0-h-2--4-----------------|
G|------------------------3-|--------------------------|
D|-----------------2------2-|-1------------------------|
A|--------------------------|-2------------------------|
E|-0-------------------2----|--------------------------|

L  2  h  4 p  2    4   4  2   1  3   4      1  1  3  4
                   3   1  1   2

[15]IV...                               VI....

E|-7---6/--12--11-h-12-h-14-p-12--9-|--9----7--11-h-9---7--6--4--|
B|-----5----------------------------|---------------11--9--7--5--|
G|-----6----------------------------|-------8--------------------|
D|-4--------------------------------|--6-------------------------|
A|----------------------------------|----------------------------|
E|----------------------------------|-----------0----------------|

L  4   4 / 4   3    3    4    3   1    4    2   4 h 1   1  1  1
   1   2                               1    3       3   3  2  2
       3


[17]
                    II...............
E|--2------------------|---------------||
B|--4/---4----------2--|--0------------||
G|-------4----------3--|--------------*||
D|-------4--3--4----2--|--1-----------*||
A|---------------------|--2------------||
E|--2---------------2--|---------------||

L   1    4          1       1
    4    3  2  2    3       2
    1    2          1
                    1

[19] Part C (Pizzicato)...................................................

E|----------0--|2h4p2--------------0--2--4-|-5h7p5---------------------7-|
B|-0--2--4-----|-------4--0-----4----------|--------7--4--0--7--9--10----|
G|-------------|-------------2-------------|-----------------------------|
D|-------------|---------------------------|-----------------------------|
A|-------------|---------------------------|-----------------------------|
E|-------------|---------------------------|-----------------------------|
L     1  3  0   1 3 1  3     1  3     1  1   2 4 2  4  1     1  3   4  1

[22]
   ...................................
E|-9h11p9-7---------------------|----------------------|
B|-----------10--7--------------|----------------------|
G|------------------8-----------|----------------------|
D|---------------------9--7-----|-------9----9----9----|
A|---------------------------9--|----------------------|
E|------------------------------|--7-------------------|

L  3 4  3 1   4  1  2  3  1  3     1    3    3    3


Technique
21 Bars. AABBCA. This song is not too hard to play. Once you play it
a couple of times, you will get the hang of it.
The last section is interesting because it's played in pizzicato, a
technique borrowed from the violin or cello. Play pizzicato with your
thumb (p) only. When you pluck, place the heel of your thumb close to
the bridge of the guitar. Make sure you keep you wrist horizontal and
move up and down according to the string being plucked. A perfect
delivery of Pizzacato is a damped sound that resonants clearly.

Tip
To Practise Pizzicato, Play any scale with all the strings. Play a
major scale starting from the top string to the bottom string. All
pizzicato must be played with the thumb. To sound is dampered by the
right hand. It is important to move your wrist up and down to damper
each individual string.
            
Submit corrections


        Pavana lessons Hard to play? Try these video lessons and learn fast Pavana lessons
        
↑ Back to top | Tablatures and chords for acoustic guitar and electric guitar, ukulele, drums are parodies/interpretations of the original songs. You may use it for private study, scholarship, research or language learning purposes only