Home » F » Francesca Battistelli »

Francesca Battistelli - Youre Here Tabs

Artists:  A B C D E F G H I J K L M N O P Q R S T U V W X Y Z # 

Youre Here Tabs

(ver. 1) Click to play this song!
Francesca Battistelli
[Intro]
            C                             F
e|---------------------------|--------------------------|
B|---1--0--0--0--1--0--0--0--|--1--0--0--0--1--0--0--0--|
G|---0--0--0--0--0--0--0--0--|--2--2--2--2--2--2--2--2--|
D|---------------------------|--------------------------|
A|--3--3--3--3--3--3--3--3---|-3--3--3--3--3--3--3--3---|
E|---------------------------|--------------------------|

[Verse 1]
            C                             F
e|---------------------------|--------------------------|
B|---1--0--0--0--1--0--0--0--|--1--0--0--0--1--0--0--0--|
G|---0--0--0--0--0--0--0--0--|--2--2--2--2--2--2--2--2--|
D|---------------------------|--------------------------|
A|--3--3--3--3--3--3--3--3---|-3--3--3--3--3--3--3--3---|
E|---------------------------|--------------------------|

Hold on now, gotta take a deep breath.                                           
Don't know what to say when I look in your eyes.
            C                             F
e|---------------------------|--------------------------|
B|---1--0--0--0--1--0--0--0--|--1--0--0--0--1--0--0--0--|
G|---0--0--0--0--0--0--0--0--|--2--2--2--2--2--2--2--2--|
D|---------------------------|--------------------------|
A|--3--3--3--3--3--3--3--3---|-3--3--3--3--3--3--3--3---|
E|---------------------------|--------------------------|
You made the world before I was born
                                      
And here I am holding you in my arms tonight.

         G      C         F
e|--------|---------|---------|
B|---3--3-|---1--1--|--1--1---|
G|---0--0-|---0--0--|--2--2---|
D|--------|---------|---------|
A|--------|--3--3---|-3--3----|
E|--3--3--|-------------------|
 
Noel,   Noel  Jesus our 
         G      C         F
e|--------|---------|---------|
B|---3--3-|---1--1--|--1--1---|
G|---0--0-|---0--0--|--2--2---|
D|--------|---------|---------|
A|--------|--3--3---|-3--3----|
E|--3--3--|-------------------|

Emmanuel

[Chorus]
            C             F
e|---------------|-------------|
B|---1--0--0--0--|--1--0--0--0-|
G|---0--0--0--0--|--2--2--2--2-|
D|---------------|-------------|
A|--3--3--3--3---|-3--3--3--3--|
E|---------------|-------------|

You're here
          C             F
e|---------------|-------------|
B|---1--0--0--0--|--1--0--0--0-|
G|---0--0--0--0--|--2--2--2--2-|
D|---------------|-------------|
A|--3--3--3--3---|-3--3--3--3--|
E|---------------|-------------|

I'm holding you so near. I'm staring into the 
                Am
e|---------------------------|
B|---1--1--1--1--1--1--1--1--|
G|---2--2--2--2--2--2--2--2--|
D|---------------------------|
A|--0--0--0--0--0--0--0--0---|
E|---------------------------|
 
face of my Saviour King and Creator.
            F           G
e|---------------|--------------|
B|---1--1--1--1--|--3--3--3--3--|
G|---2--2--2--2--|--0--0--0--0--|
D|---------------|--------------|
A|--3--3--3--3---|--------------|
E|---------------|-3--3--3--3---|
    
     You could've left us on our own.
 
e|---8--7-----------8--7--------------|
B|---------8--5--3--------8--5--3--1--|
G|------------------------------------|
D|------------------------------------|
A|------------------------------------|
E|------------------------------------|

But you're here

[Verse 2]
         C                             
I don't know how long I'm gonna have you for,
                                           F  
But I'll be watching when you change the world.
   C
Look at your hands they're still so small,
                                          F
One day you're gonna stretch them out and save us all
        G  C F
Noel,   Noel
         G C F
God with us  Emmanuel

[Chorus]
         C F
You're here
                    C F
I'm holding you so near
                      Am
I'm staring into the face of my Saviour
                  
King and Creator.
F                             G
 You could've left us on our own.

e|---8--7------------|
B|---------8--5--3---|
G|-------------------|
D|-------------------|
A|-------------------|
E|-------------------|

But you're here

e|---8--7-------------|
B|---------8--5--3--1-|
G|--------------------|
D|--------------------|
A|--------------------|
E|--------------------|
You're Here

[Instrumental]
e|----------------------------3------3-------------|
B|-------5-------3-4-5-------------------6---5---3-|
G|-5-4-5-----4-5---------5-4-5----5-7--------------|
D|-------------------------------------------------|
A|-------------------------------------------------|
E|-------------------------------------------------|

[Verse 3]
            C                   
e|---------------------------|
B|---1--0--0--0--1--0--0--0--|
G|---0--0--0--0--0--0--0--0--|
D|---------------------------|
A|--3--3--3--3--3--3--3--3---|
E|---------------------------|

           C                             F
e|---------------------------|-----------------------|
B|---1--0--0--0--1--0--0--0--|--1--0--0--0--5--3--1--|
G|---0--0--0--0--0--0--0--0--|--2--2--2--2-----------|
D|---------------------------|-----------------------|
A|--3--3--3--3--3--3--3--3---|-3--3--3--3------------|
E|---------------------------|-----------------------|

Someday I'm gonna look back on this,
                                   
The night that God became a baby boy
            C                   
e|---------------------------|
B|---1--0--0--0--1--0--0--0--|
G|---0--0--0--0--0--0--0--0--|
D|---------------------------|
A|--3--3--3--3--3--3--3--3---|
E|---------------------------|

Someday you're gonna go home again
                                                   
But you leave your spirit and flood the world with 
  
   Am      G       F
e|-------|-------|-------------|
B|--1--1-|--3--3-|--1--1--1--1-|
G|--2--2-|--0--0-|--2--2--2--2-|
D|-------|-------|-------------|
A|-0--0--|-------|-3--3--3--3--|
E|-------|-3--3--|-------------|

Joy.

[Chorus]
         C F
You're here
                    C F
I'm holding you so near
                      Am
I'm staring into the face of my Saviour
              
King and Creator.
F                            G
  You could've left me on my own.

e|---8--7------------|
B|---------8--5--3---|
G|-------------------|
D|-------------------|
A|-------------------|
E|-------------------|
But you're here
 
e|---8--7------------|
B|---------8--5--3---|
G|-------------------|
D|-------------------|
A|-------------------|
E|-------------------|
You're here

e|---8--7------------|
B|---------8--5--3-1-|
G|-------------------|
D|-------------------|
A|-------------------|
E|-------------------|
Hallelujah You're here
             C        F      C
Hallelujah You're here            
Submit corrections

↑ Back to top | Tablatures and chords for acoustic guitar and electric guitar, ukulele, drums are parodies/interpretations of the original songs. You may use it for private study, scholarship, research or language learning purposes only