Home » F » Francesca Battistelli »

Francesca Battistelli - Holy Spirit Tabs

Artists:  A B C D E F G H I J K L M N O P Q R S T U V W X Y Z # 

Holy Spirit Tabs

(ver. 1) Click to play this song!
Francesca Battistelli
[Intro]
                 D                        G
e|----------------------------|---------------------------|
B|-----3--3--3------3--3--3---|---3--3--3------3--3--3----|
G|----2-2--2--2----2-2--2--2--|--0-0--0--0----0-0--0--0---|
D|---0---0--0--0--0---0--0--0-|-0---0--0--0--0---0--0--0--|
A|--0------------0------------|---------------------------|
E|----------------------------|3------------3-------------|

[Verse]
               D                        G
e|----------------------------|---------------------------|
B|-----3--3--3------3--3--3---|---3--3--3------3--3--3----|
G|----2-2--2--2----2-2--2--2--|--0-0--0--0----0-0--0--0---|
D|---0---0--0--0--0---0--0--0-|-0---0--0--0--0---0--0--0--|
A|--0------------0------------|---------------------------|
E|----------------------------|3------------3-------------|

There's nothing worth more, That could ever come close
No thing can compare, You're our living
                 D                        G
e|----------------------------|---------------------------|
B|-----3--3--3------3--3--3---|---3--3--3------3--3--3----|
G|----2-2--2--2----2-2--2--2--|--0-0--0--0----0-0--0--0---|
D|---0---0--0--0--0---0--0--0-|-0---0--0--0--0---0--0--0--|
A|--0------------0------------|---------------------------|
E|----------------------------|3------------3-------------|

   hope,      Your Presence, Lord
                 D                        G
e|----------------------------|---------------------------|
B|-----3--3--3------3--3--3---|---3--3--3------3--3--3----|
G|----2-2--2--2----2-2--2--2--|--0-0--0--0----0-0--0--0---|
D|---0---0--0--0--0---0--0--0-|-0---0--0--0--0---0--0--0--|
A|--0------------0------------|---------------------------|
E|----------------------------|3------------3-------------|

   I've tasted and seen, Of the sweetest of loves,
When my heart becomes free, And my shame is
                 D                        G
e|----------------------------|---------------------------|
B|-----3--3--3------3--3--3---|---3--3--3------3--3--3----|
G|----2-2--2--2----2-2--2--2--|--0-0--0--0----0-0--0--0---|
D|---0---0--0--0--0---0--0--0-|-0---0--0--0--0---0--0--0--|
A|--0------------0------------|---------------------------|
E|----------------------------|3------------3-------------|
 
  undone.   You're Presence, Lord.

[Chorus]
                 D                          G                         Em7
e|-------------------------------|------------------------|------------------------|
B|-----3--3--3------3--3--3------|--------3--3--3---------|-------------3--3--3----|
G|----2-2--2--2----2-2--2--2-----|-------0-0--0--0--------|------------0-0--0--0---|
D|---0---0--0--0--0---0--0--0----|------0---0--0--0-------|-----------0---0--0--0--|
A|--0------------0---------------|------------------------|------------------------|
E|-------------------------------|-----3------------------|----------0-------------|

Holy Spirit you are welcome here,Come flood this place and fill the atmosphere

                 D                                     G              Em7
e|-----------------------------------|--------------------------------------|
B|-----3--3--3------3--3--3----------|----------------3--3--3----------3----|
G|----2-2--2--2----2-2--2--2---------|---------------0-0--0--0--------0-0---|
D|---0---0--0--0--0---0--0--0--------|--------------0---0--0--0------0---0--|
A|--0------------0-------------------|--------------------------------------|
E|-----------------------------------|-------------3----------------0-------|

Your glory,God,is what our hearts long for, To be overcome by your presence,
                 D                 G             Em7
e|---------------------------|-------------|---------------|
B|-----3--3--3------3--3--3--|----3--3--3--|----3--3--3----|
G|----2-2--2--2----2-2--2--2-|---0-0--0--0-|---0-0--0--0---|
D|---0---0--0--0--0---0--0--0|--0---0--0--0|--0---0--0--0--|
A|--0------------0-----------|-------------|---------------|
E|---------------------------|-3-----------|-0-------------|
    Lord                     Your Presence, Lord

[Verse]
               D                        G
e|----------------------------|---------------------------|
B|-----3--3--3------3--3--3---|---3--3--3------3--3--3----|
G|----2-2--2--2----2-2--2--2--|--0-0--0--0----0-0--0--0---|
D|---0---0--0--0--0---0--0--0-|-0---0--0--0--0---0--0--0--|
A|--0------------0------------|---------------------------|
E|----------------------------|3------------3-------------|

There's nothing worth more, That could ever come close
No thing can compare, You're our living

                 D                        G
e|----------------------------|---------------------------|
B|-----3--3--3------3--3--3---|---3--3--3------3--3--3----|
G|----2-2--2--2----2-2--2--2--|--0-0--0--0----0-0--0--0---|
D|---0---0--0--0--0---0--0--0-|-0---0--0--0--0---0--0--0--|
A|--0------------0------------|---------------------------|
E|----------------------------|3------------3-------------|

   hope,      Your Presence, Lord
                 D                        G
e|----------------------------|---------------------------|
B|-----3--3--3------3--3--3---|---3--3--3------3--3--3----|
G|----2-2--2--2----2-2--2--2--|--0-0--0--0----0-0--0--0---|
D|---0---0--0--0--0---0--0--0-|-0---0--0--0--0---0--0--0--|
A|--0------------0------------|---------------------------|
E|----------------------------|3------------3-------------|

   I've tasted and seen, Of the sweetest of loves,
When my heart becomes free, And my shame is
                 D                        G
e|----------------------------|---------------------------|
B|-----3--3--3------3--3--3---|---3--3--3------3--3--3----|
G|----2-2--2--2----2-2--2--2--|--0-0--0--0----0-0--0--0---|
D|---0---0--0--0--0---0--0--0-|-0---0--0--0--0---0--0--0--|
A|--0------------0------------|---------------------------|
E|----------------------------|3------------3-------------|
 
  undone.   You're Presence, Lord.

[Chorus]
                 D                          G                         Em7
e|-------------------------------|------------------------|------------------------|
B|-----3--3--3------3--3--3------|--------3--3--3---------|-------------3--3--3----|
G|----2-2--2--2----2-2--2--2-----|-------0-0--0--0--------|------------0-0--0--0---|
D|---0---0--0--0--0---0--0--0----|------0---0--0--0-------|-----------0---0--0--0--|
A|--0------------0---------------|------------------------|------------------------|
E|-------------------------------|-----3------------------|----------0-------------|

Holy Spirit you are welcome here,Come flood this place and fill the atmosphere
                 D                                     G              Em7
e|-----------------------------------|--------------------------------------|
B|-----3--3--3------3--3--3----------|----------------3--3--3----------3----|
G|----2-2--2--2----2-2--2--2---------|---------------0-0--0--0--------0-0---|
D|---0---0--0--0--0---0--0--0--------|--------------0---0--0--0------0---0--|
A|--0------------0-------------------|--------------------------------------|
E|-----------------------------------|-------------3----------------0-------|

Your glory,God,is what our hearts long for, To be overcome by your presence,
                 D                 G             Em7
e|---------------------------|-------------|---------------|
B|-----3--3--3------3--3--3--|----3--3--3--|----3--3--3----|
G|----2-2--2--2----2-2--2--2-|---0-0--0--0-|---0-0--0--0---|
D|---0---0--0--0--0---0--0--0|--0---0--0--0|--0---0--0--0--|
A|--0------------0-----------|-------------|---------------|
E|---------------------------|-3-----------|-0-------------|
    Lord                     Your Presence, Lord

[Bridge]
Let us become more aware of your presence
Let us experience the glory of your goodness
    G     D/F#       Em7           D/F#
e|-3--3---0--0-------0--0----------0--0----|
B|-3--3---3--3-------3--3----------3--3----|
G|-0--0---2--2-------0--0----------2--2----|
D|-0--0---0--0-------0--0----------0--0----|
A|-2--2---0--0-------2--2----------0--0----|
E|-3--3---2--2-------0--0----------2--2----|

  Let us become more aware of your presence
    G     D/F#       Em7           D/F#
e|-3--3---0--0-------0--0----------0--0----|
B|-3--3---3--3-------3--3----------3--3----|
G|-0--0---2--2-------0--0----------2--2----|
D|-0--0---0--0-------0--0----------0--0----|
A|-2--2---0--0-------2--2----------0--0----|
E|-3--3---2--2-------0--0----------2--2----|

Let us experience the glory of your goodness

    G     D/F#       Em7           D/F#
e|-3--3---0--0-------0--0----------0--0----|
B|-3--3---3--3-------3--3----------3--3----|
G|-0--0---2--2-------0--0----------2--2----|
D|-0--0---0--0-------0--0----------0--0----|
A|-2--2---0--0-------2--2----------0--0----|
E|-3--3---2--2-------0--0----------2--2----|

Let us become more aware of your presence (Your Presence, God)
    G     D/F#       Em7           D/F#
e|-3--3---0--0-------0--0----------0--0----|
B|-3--3---3--3-------3--3----------3--3----|
G|-0--0---2--2-------0--0----------2--2----|
D|-0--0---0--0-------0--0----------0--0----|
A|-2--2---0--0-------2--2----------0--0----|
E|-3--3---2--2-------0--0----------2--2----|

let us experience the glory of your goodness (You're Goodness)
    G     D/F#       Em7           D/F#
e|-3--3---0--0-------0--0----------0--0----|
B|-3--3---3--3-------3--3----------3--3----|
G|-0--0---2--2-------0--0----------2--2----|
D|-0--0---0--0-------0--0----------0--0----|
A|-2--2---0--0-------2--2----------0--0----|
E|-3--3---2--2-------0--0----------2--2----|

Let us become more aware of your presence (of your presence, God)
    G     D/F#       Em7           D/F#
e|-3--3---0--0-------0--0----------0--0----|
B|-3--3---3--3-------3--3----------3--3----|
G|-0--0---2--2-------0--0----------2--2----|
D|-0--0---0--0-------0--0----------0--0----|
A|-2--2---0--0-------2--2----------0--0----|
E|-3--3---2--2-------0--0----------2--2----|

Let us experience the glory of your goodness (Hey...)

[Chorus]
                 D                          G                         Em7
e|-------------------------------|------------------------|------------------------|
B|-----3--3--3------3--3--3------|--------3--3--3---------|-------------3--3--3----|
G|----2-2--2--2----2-2--2--2-----|-------0-0--0--0--------|------------0-0--0--0---|
D|---0---0--0--0--0---0--0--0----|------0---0--0--0-------|-----------0---0--0--0--|
A|--0------------0---------------|------------------------|------------------------|
E|-------------------------------|-----3------------------|----------0-------------|

Holy Spirit you are welcome here,Come flood this place and fill the atmosphere
                 D                                     G              Em7
e|-----------------------------------|--------------------------------------|
B|-----3--3--3------3--3--3----------|----------------3--3--3----------3----|
G|----2-2--2--2----2-2--2--2---------|---------------0-0--0--0--------0-0---|
D|---0---0--0--0--0---0--0--0--------|--------------0---0--0--0------0---0--|
A|--0------------0-------------------|--------------------------------------|
E|-----------------------------------|-------------3----------------0-------|

Your glory,God,is what our hearts long for, To be overcome by your presence,
                 D                 G             Em7
e|---------------------------|-------------|---------------|
B|-----3--3--3------3--3--3--|----3--3--3--|----3--3--3----|
G|----2-2--2--2----2-2--2--2-|---0-0--0--0-|---0-0--0--0---|
D|---0---0--0--0--0---0--0--0|--0---0--0--0|--0---0--0--0--|
A|--0------------0-----------|-------------|---------------|
E|---------------------------|-3-----------|-0-------------|
    Lord                     Your Presence, Lord            
Submit corrections

↑ Back to top | Tablatures and chords for acoustic guitar and electric guitar, ukulele, drums are parodies/interpretations of the original songs. You may use it for private study, scholarship, research or language learning purposes only