Home » F » Francesca Battistelli »

Francesca Battistelli - Don't Miss It Tabs

Artists:  A B C D E F G H I J K L M N O P Q R S T U V W X Y Z # 

Don't Miss It Tabs

(ver. 1) Click to play this song!
Francesca Battistelli
Francesca Battistelli - 'Don't Miss It'

Several parts of the song use chords that have a high note, low note and a 
ringing D string. Just try to play as indicated and mute the string that is 
not used with the edge of your fretting finger when strumming these chords. 
Good luck!


Intro Riff - play 4x 
B string is slightly muted, but don't play G string

e|-------------------------|-------------------------|
B|-5--5--5--7--7--7--7--7--|-7--7--7--7--7--7--7--7--|
G|-x--x--x--x--x--x--x--x--|-x--x--x--x--x--x--x--x--|
D|-0--0--0--0--0--0--0--0--|-0--0--0--0--0--0--0--0--|
A|-4--4--4--5--5--5--5--5--|-5--5--5--5--5--5--5--5--|
E|-------------------------|-------------------------|

"Burn up the interstate  Got somewhere you need to be, 
you're Not gonna let nobody slow you down
Turn off the radio and Turn up your telephone
You don't have the time to smell the roses now"




Prechorus - 

e|-------------------------|-------------------------|
B|-------------------------|-------------------------|
G|-2--2--x--4--4--4--x--6--|-6--6--x--7--7--7--7\----|
D|-0--0--x--0--0--0--x--0--|-0--0--x--0--0--0--0-----|
A|-x--x--x--x--x--x--x--x--|-x--x--x--x--x--x--x-----|
E|-2--2--x--3--3--3--x--5--|-5--5--x--7--7--7--7\----|

                           "But take a second maybe"
e|-------------------------|-------------------------|
B|-------------------------|-------------------------|
G|-2--2--x--4--4--4--x--6--|-6--6--6--6--6--6--6--x--|
D|-0--0--x--0--0--0--x--0--|-0--0--0--0--0--0--0--x--|
A|-x--x--x--x--x--x--x--x--|-x--x--x--x--x--x--x--x--|
E|-2--2--x--3--3--3--x--5--|-5--5--5--5--5--5--5--x--|

                          "Before it gets too loud"


e|-------------------------|-------------------------|
B|-------------------------|-------------------------|
G|-2--2--x--4--4--4--x--6--|-6--6--x--7--7--7--7\----|
D|-0--0--x--0--0--0--x--0--|-0--0--x--0--0--0--0-----|
A|-x--x--x--x--x--x--x--x--|-x--x--x--x--x--x--x-----|
E|-2--2--x--3--3--3--x--5--|-5--5--x--7--7--7--7\----|

                          "Breathe before your breath"


e|-------------------------|
B|-------------------------|
G|-2--2--x--4--4--4--x--6--|
D|-0--0--x--0--0--0--x--0--|  hold out last chord
A|-x--x--x--x--x--x--x--x--|
E|-2--2--x--3--3--3--x--5--|

  "runs       out"





Chorus - Strum Chords indicated:

e|-----------|-3---------|----------|-----------|
B|--3--------|-3---------|-3--------|-2---------|
G|--4--------|-0---------|-2--------|-2---------|
D|--4--------|-0---------|-0--------|-2---------|
A|--2--------|-x---------|-0--------|-0---------| 
E|-----------|-3---------|----------|-----------|

1."Don't  try  so  hard  to move past the moment"
2."These days go by and they're gone before you know it"


e|-0---------|------------|-0--------|-----------|
B|-0---------|-3----2-----|-0--------|-3----2----|
G|-0---------|-4----2-----|-0--------|-4----2----|
D|-2---------|-4----2-----|-2--------|-4----2----|
A|-2---------|-2----0-----|-2--------|-2----0----|
E|-0---------|------------|-0--------|-----------|

 "So come on, open your window. Let the light shine in"


e|-0---------|-3----------|
B|-0---------|-3----------|
G|-0---------|-0----------|
D|-2---------|-0----------|
A|-2---------|-x----------|
E|-0---------|-3----------|

"This is life, don't miss it"






Verse 2 - Play Intro Riff again

Guitar with light distortion adds on:
e|-------------------------|-------------------------|
B|-------------------------|-------------------------|
G|-------------------------|-------------------------|
D|-------------------------|-------------------------|
A|-4--4--4--5--5--5--5--5--|-5--5--5--5--5--5--5--5--|
E|-------------------------|-------------------------|
   palm mute all notes

 "What if you took the time    To really soak it in"
 "Cause someday you're gonna wish you did"
 "Like a September morning  Like snow without a warning"
 "Like how the summer feels upon your skin"










Play Prechorus on heavy guitar, but add Lead guitar:

e|-10--10--10--9--9--9-------|---------------|
B|----------------------10---|-(10)----------|
G|---------------------------|---------------|
D|---------------------------|---------------|
A|---------------------------|---------------|
E|---------------------------|---------------|

e|-10--10--10--9--9--9-------|---------------|
B|---------------------------|---------------|
G|----------------------9----|-(9)-----------|
D|---------------------------|---------------|
A|---------------------------|---------------|
E|---------------------------|---------------|

e|-10--10--10--9--9--9-------|---------------|
B|----------------------10---|-(10)----------|
G|---------------------------|---------------|
D|---------------------------|---------------|
A|---------------------------|---------------|
E|---------------------------|---------------|

e|---------------------------|---------------|
B|-10--------10-10-10-10-10--|-(10)----------|
G|---------------------------|---------------|
D|---------------------------|---------------|
A|---------------------------|---------------|
E|---------------------------|---------------|





Play chorus Again




Bridge - strum chords and play 2x

e|------------|-0-----------|-2----------|-3-----------|
B|-3----------|-2-----------|-3----------|-0-----------|
G|-2----------|-2-----------|-4----------|-0-----------|
D|-0----------|-2-----------|-4----------|-0-----------|
A|-0----------|-0-----------|-2----------|-x-----------|
E|------------|-------------|------------|-3-----------|



Play Prechorus halfway through with clean guitar
then, add the Lead and heavier guitar 


Play Chorus

Play Intro riff and finish song on a D chord





KEY
************************************

| \   slide down
| x   Muted string/note

************************************
            
Submit corrections

↑ Back to top | Tablatures and chords for acoustic guitar and electric guitar, ukulele, drums are parodies/interpretations of the original songs. You may use it for private study, scholarship, research or language learning purposes only