Home » F » Framing Hanley »

Framing Hanley - Hear Me Now Tabs

Artists:  A B C D E F G H I J K L M N O P Q R S T U V W X Y Z # 

Hear Me Now Tabs

(ver. 3) Click to play this song!
Framing Hanley
(Intro)
----------------------------------------------------------------------------
                       "Hear Me Now" by Framing Hanley
----------------------------------------------------------------------------
April 11th 2008

Tuning: C# G# C# F# A# D#

The Intro to Framing Hanley's single "Hear Me Now" from their '07 debut The Moment.

Rhythm Guitar
Intro 

Let Ring

d#|--------------------------------------------------|
A#|--------------------------------------------------|
F#|------------------------12------------------------|
C#|---0----15----14-0----0-------15----14----14h15---| x 4
G#|-----12----12------15------12----12----12---------|
C#|--------------------------------------------------|

d#|-----------------------------------------------|
A#|-----------------------------------------------|
F#|------------------------12---------------------|
C#|---0----15----14-0----0-------15----14----10---| x 6
G#|-----12----12------15------12----12----12------|
C#|-----------------------------------------------|




Lead Guitar
Intro

d#|----------------------------------|
A#|----------------------------------|
F#|---------7------------------------|
C#|---------0------------------------|
G#|---------0------------------------|
C#|---------0------------------------|

d#|-----------------------------------------------------------|
A#|------10-----10-----10----10-------------------------------|
F#|---------------------------------12-----12-----12-----12---|
C#|---0------0------0-----0------0------0------0------0-------|
G#|-----------------------------------------------------------|
C#|-----------------------------------------------------------|
     
                                                 
d#|--------------------------------------|
A#|---13------13------13-----------------|
F#|-------12------12------12-------------|
C#|---------------------------14-(x16)---|
G#|--------------------------------------|
C#|--------------------------------------|
            
Submit corrections

↑ Back to top | Tablatures and chords for acoustic guitar and electric guitar, ukulele, drums are parodies/interpretations of the original songs. You may use it for private study, scholarship, research or language learning purposes only