Home » F » Framing Hanley »

Framing Hanley - Alone In This Bed Tabs

Artists:  A B C D E F G H I J K L M N O P Q R S T U V W X Y Z # 

Alone In This Bed Tabs

(ver. 2) Click to play this song!
Framing Hanley
Hey, so yeah I don't tab songs out often, but I noticed there aren't any proper tabs up 
for this song and so I finally got around to figuring it out :)

It's not completely correct, like a few of the ghost notes and picky bits aren't exact, 
but you wouldn't notice unless you're being picky xD

Listen to the song for the rhythms

Tuning: Half-step down

Eb|------------8--------3-----3p2p0-----------------------------------------3-|
Bb|------------8----------3--------3p1p0------------------------------------3-|
Gb|--0---0----------0-------0---------------0---2----2p0--0-------------------|
Db|---------0-------------------------------------0------0------0---2p0-------|
Ab|---------------------------------------------------------------------2p0---|
Eb|8---8-----8----0---0-------------------2---2----2-----2---3---3----3----3--|

This repeats throughout the verses

Waking up without you,

It doesn't feel right

To sleep with only memories

It's harder every night

And sometimes I think I can feel you,

Breathing on my neck


Pre-chorus:

Cadd9       G         F#/D       Em7
Tonight I'm screaming out to the stars

                           Cadd9
I think that he owes me a favour.

   G              F#/D      Em7
It doesn't matter where you are


I'll hold you again


Chorus:

G              F#/D                Em7
I wish I could hear your voice,

      Cadd9                  G
Don't leave me alone in this bed

               F#/D                 Em7
I wish I could touch you once more

      Cadd9
Don't leave me alone in this bed


Eb|------------8--------3-----3p2p0-----------------------------------------3-|
Bb|------------8----------3--------3p1p0------------------------------------3-|
Gb|--0---0----------0-------0---------------0---2----2p0--0-------------------|
Db|---------0-------------------------------------0------0------0---2p0-------|
Ab|---------------------------------------------------------------------2p0---|
Eb|8---8-----8----0---0-------------------2---2----2-----2---3---3----3----3--|


Not tonight

Not tomorrow.

Verse 2:

I've got the feeling,

That this will never cease.

Living in these pictures,

It never comes with ease

I swear if I could make this right

You'd be back, by now.

Pre-Chorus:


Cadd9       G         F#/D       Em7
Tonight I'm screaming out to the stars

                           Cadd9
He knows he owes me a favour.

   G              F#/D      Em7
It doesn't matter where you are


You'll be mine again


Chorus:

G              F#/D                Em7
I wish I could hear your voice,

      Cadd9                  G
Don't leave me alone in this bed

               F#/D                 Em7
I wish I could touch you once more

      Cadd9
Don't leave me alone in this

Em7      Cadd9     D?(slide the Cadd9 up to the 5th fret)
Bed......

                             Em7  Cadd9  D?
What about the plans that we had...?


You'd be crazy not to go

Cadd9
Meet me in capeside


Chorus:

G              F#/D                Em7
I wish I could hear your voice,

      Cadd9                  G
Don't leave me alone in this bed

               F#/D                 Em7
I wish I could touch you once more

      Cadd9                  G
Don't leave me alone in this bed

                 F#/D
Don't leave me alone (I wish I could hear your voice)

                Em7
Don't leave me alone

      Cadd9                  G
Don't leave me alone in this bed (don't leave me alone in this bed)

                F#/D
Don't leave me alone  (I wish I could touch you once more)

                Em7
Don't leave me alone


Don't leave me alone in this bed.   (end on a G if you want it to sound complete)


(for the last line)

Eb|----------0-------|
Bb|-----3------3-----|
Gb|----0---------0---|
Db|------------------|
Ab|--3----3----------|
Eb|------------------|
            
Submit corrections

↑ Back to top | Tablatures and chords for acoustic guitar and electric guitar, ukulele, drums are parodies/interpretations of the original songs. You may use it for private study, scholarship, research or language learning purposes only