Home » F » Frames »

Frames - Seven Day Mile Tabs

Artists:  A B C D E F G H I J K L M N O P Q R S T U V W X Y Z # 

Seven Day Mile Tabs

(ver. 1) Click to play this song!
Frames
[Intro]

e|---------------------------------------------------------------------------|
B|---------------------------------------------------------------------------|
G|---------------------------------------------------------------------------|
D|--2-x-x-4-x-x-2-x-x-x-x-4-x-2-2-2------------------------------------------|X3
A|--2-x-x-2-x-x-2-x-x-x-x-2-x-2-5-4------------------------------------------|
E|--3-x-x-3-x-x-3-x-x-x-x-3-x-3-3-3------------------------------------------|

e|--2-x-x-2-x-x-2-x-0-x-x-0-x-0-0-0------------------------------------------|
B|--3-x-x-3-x-x-3-x-2-x-x-3-x-3-3-2------------------------------------------|
G|--2-x-x-2-x-x-2-x-2-x-x-2-x-2-2-2------------------------------------------|
D|------------------2-x-x-2-x-2-2-2------------------------------------------|
A|------------------0-x-x-0-x-0-0-0------------------------------------------|
E|---------------------------------------------------------------------------|


[Verse]

         Your will       changes every day 
e|---------------------------------------------------------------------------|
B|---------------------------------------------------------------------------|
G|---------------------------------------------------------------------------|
D|--2-x-x-4-x-x-2-x-x-x-x-4-x-2-2-2------------------------------------------|
A|--2-x-x-2-x-x-2-x-x-x-x-2-x-2-5-4------------------------------------------|
E|--3-x-x-3-x-x-3-x-x-x-x-3-x-3-3-3------------------------------------------|

         It's a          choice you've got to make
e|---------------------------------------------------------------------------|
B|---------------------------------------------------------------------------|
G|---------------------------------------------------------------------------|
D|--2-x-x-4-x-x-2-x-x-x-x-4-x-2-2-2------------------------------------------|
A|--2-x-x-2-x-x-2-x-x-x-x-2-x-2-5-4------------------------------------------|
E|--3-x-x-3-x-x-3-x-x-x-x-3-x-3-3-3------------------------------------------|

         I can           help you if I want to
e|----------------------------------2-x-x-2-x-x-2-x-0-x-x-0-x-0-0-0----------|
B|----------------------------------3-x-x-3-x-x-3-x-2-x-x-3-x-3-3-2----------|
G|----------------------------------2-x-x-2-x-x-2-x-2-x-x-2-x-2-2-2----------|
D|--2-x-x-4-x-x-2-x-x-x-x-4-x-2-2-2-0-x-x-0-x-x-0-x-2-x-x-2-x-2-2-2----------|
A|--2-x-x-2-x-x-2-x-x-x-x-2-x-2-5-4-----------------0-x-x-0-x-0-0-0----------|
E|--3-x-x-3-x-x-3-x-x-x-x-3-x-3-3-3------------------------------------------|

         Down here       nothing gets a chance
e|---------------------------------------------------------------------------|
B|---------------------------------------------------------------------------|
G|---------------------------------------------------------------------------|
D|--2-x-x-4-x-x-2-x-x-x-x-4-x-2-2-2------------------------------------------|
A|--2-x-x-2-x-x-2-x-x-x-x-2-x-2-5-4------------------------------------------|
E|--3-x-x-3-x-x-3-x-x-x-x-3-x-3-3-3------------------------------------------|

         It's a          threat that's real enough
e|---------------------------------------------------------------------------|
B|---------------------------------------------------------------------------|
G|---------------------------------------------------------------------------|
D|--2-x-x-4-x-x-2-x-x-x-x-4-x-2-2-2------------------------------------------|
A|--2-x-x-2-x-x-2-x-x-x-x-2-x-2-5-4------------------------------------------|
E|--3-x-x-3-x-x-3-x-x-x-x-3-x-3-3-3------------------------------------------|

         We can          burn this bridge or stay here        It's a 
e|----------------------------------2-x-x-2-x-x-2-x-0-x-x-0-x-0-0-0----------|
B|----------------------------------3-x-x-3-x-x-3-x-2-x-x-2-x-2-2-2----------|
G|----------------------------------2-x-x-2-x-x-2-x-2-x-x-2-x-2-2-2----------|
D|--2-x-x-4-x-x-2-x-x-x-x-4-x-2-2-2-0-x-x-0-x-x-0-x-2-x-x-2-x-2-2-2----------|
A|--2-x-x-2-x-x-2-x-x-x-x-2-x-2-5-4-----------------0-x-x-0-x-0-0-0----------|
E|--3-x-x-3-x-x-3-x-x-x-x-3-x-3-3-3------------------------------------------|

   breeze              Everlasting
e|-3-x-x-3-x-x-3-x-3-x-x-3-x-x-3-x-------------------------------------------|
B|-0-x-x-0-x-x-0-x-2-x-x-2-x-x-2-x-------------------------------------------|
G|-0-x-x-0-x-x-0-x-2-x-x-2-x-x-2-x-------------------------------------------|
D|-0-x-x-0-x-x-0-x-0-x-x-0-x-x-0-x-------------------------------------------|
A|-2-x-x-2-x-x-2-x-0-x-x-0-x-x-0-x-------------------------------------------|
E|-3-x-x-3-x-x-3-x-3-x-x-3-x-x-3-x-------------------------------------------|

   like   time         Making so sure
e|-3-x-x-3-x-x-3-x-3-x-x-3-x-x-3-x-------------------------------------------|
B|-0-x-x-0-x-x-0-x-2-x-x-2-x-x-2-x-------------------------------------------|
G|-0-x-x-0-x-x-0-x-2-x-x-2-x-x-2-x-------------------------------------------|
D|-0-x-x-0-x-x-0-x-0-x-x-0-x-x-0-x-------------------------------------------|
A|-2-x-x-2-x-x-2-x-0-x-x-0-x-x-0-x-------------------------------------------|
E|-3-x-x-3-x-x-3-x-3-x-x-3-x-x-3-x-------------------------------------------|

   that   I            can return just to
e|-3-x-x-3-x-x-3-x-3-x-x-3-x-x-3-x-------------------------------------------|
B|-0-x-x-0-x-x-0-x-2-x-x-2-x-x-2-x-------------------------------------------|
G|-0-x-x-0-x-x-0-x-2-x-x-2-x-x-2-x-------------------------------------------|
D|-0-x-x-0-x-x-0-x-0-x-x-0-x-x-0-x-------------------------------------------|
A|-2-x-x-2-x-x-2-x-0-x-x-0-x-x-0-x-------------------------------------------|
E|-3-x-x-3-x-x-3-x-3-x-x-3-x-x-3-x-------------------------------------------|

   see it from your side again
e|-2-x-x-2-x-x-2-x-0-x-x-0-x-0-0-0-------------------------------------------|
B|-3-x-x-3-x-x-3-x-2-x-x-3-x-3-3-2-------------------------------------------|
G|-2-x-x-2-x-x-2-x-2-x-x-2-x-2-2-2-------------------------------------------|
D|-0-x-x-0-x-x-0-x-2-x-x-2-x-2-2-2-------------------------------------------|
A|-----------------0-x-x-0-x-0-0-0-------------------------------------------|
E|---------------------------------------------------------------------------|


[Verse]

         Always          never seems to work
e|---------------------------------------------------------------------------|
B|---------------------------------------------------------------------------|
G|---------------------------------------------------------------------------|
D|--2-x-x-4-x-x-2-x-x-x-x-4-x-2-2-2------------------------------------------|
A|--2-x-x-2-x-x-2-x-x-x-x-2-x-2-5-4------------------------------------------|
E|--3-x-x-3-x-x-3-x-x-x-x-3-x-3-3-3------------------------------------------|

         It's a          word you never learned
e|---------------------------------------------------------------------------|
B|---------------------------------------------------------------------------|
G|---------------------------------------------------------------------------|
D|--2-x-x-4-x-x-2-x-x-x-x-4-x-2-2-2------------------------------------------|
A|--2-x-x-2-x-x-2-x-x-x-x-2-x-2-5-4------------------------------------------|
E|--3-x-x-3-x-x-3-x-x-x-x-3-x-3-3-3------------------------------------------|

         I don't         really see a way clear               It's a
e|----------------------------------2-x-x-2-x-x-2-x-0-x-x-0-x-0-0-0----------|
B|----------------------------------3-x-x-3-x-x-3-x-2-x-x-2-x-2-2-2----------|
G|----------------------------------2-x-x-2-x-x-2-x-2-x-x-2-x-2-2-2----------|
D|--2-x-x-4-x-x-2-x-x-x-x-4-x-2-2-2-0-x-x-0-x-x-0-x-2-x-x-2-x-2-2-2----------|
A|--2-x-x-2-x-x-2-x-x-x-x-2-x-2-5-4-----------------0-x-x-0-x-0-0-0----------|
E|--3-x-x-3-x-x-3-x-x-x-x-3-x-3-3-3------------------------------------------|


   sea                 ever churning
e|-3-x-x-3-x-x-3-x-3-x-x-3-x-x-3-x-------------------------------------------|
B|-0-x-x-0-x-x-0-x-2-x-x-2-x-x-2-x-------------------------------------------|
G|-0-x-x-0-x-x-0-x-2-x-x-2-x-x-2-x-------------------------------------------|
D|-0-x-x-0-x-x-0-x-0-x-x-0-x-x-0-x-------------------------------------------|
A|-2-x-x-2-x-x-2-x-0-x-x-0-x-x-0-x-------------------------------------------|
E|-3-x-x-3-x-x-3-x-3-x-x-3-x-x-3-x-------------------------------------------|

   in      tides       In the sureness
e|-3-x-x-3-x-x-3-x-3-x-x-3-x-x-3-x-------------------------------------------|
B|-0-x-x-0-x-x-0-x-2-x-x-2-x-x-2-x-------------------------------------------|
G|-0-x-x-0-x-x-0-x-2-x-x-2-x-x-2-x-------------------------------------------|
D|-0-x-x-0-x-x-0-x-0-x-x-0-x-x-0-x-------------------------------------------|
A|-2-x-x-2-x-x-2-x-0-x-x-0-x-x-0-x-------------------------------------------|
E|-3-x-x-3-x-x-3-x-3-x-x-3-x-x-3-x-------------------------------------------|

   of      mind         and our words just
e|-3-x-x-3-x-x-3-x-3-x-x-3-x-x-3-x-------------------------------------------|
B|-0-x-x-0-x-x-0-x-2-x-x-2-x-x-2-x-------------------------------------------|
G|-0-x-x-0-x-x-0-x-2-x-x-2-x-x-2-x-------------------------------------------|
D|-0-x-x-0-x-x-0-x-0-x-x-0-x-x-0-x-------------------------------------------|
A|-2-x-x-2-x-x-2-x-0-x-x-0-x-x-0-x-------------------------------------------|
E|-3-x-x-3-x-x-3-x-3-x-x-3-x-x-3-x-------------------------------------------|

 repeat now forever again      Well
e|-2-x-x-2-x-x-2-x-0-0-0-0-0-0-0-0-------------------------------------------|
B|-3-x-x-3-x-x-3-x-2-2-2-2-2-2-2-2-------------------------------------------|
G|-2-x-x-2-x-x-2-x-2-2-2-2-2-2-2-2-------------------------------------------|
D|-0-x-x-0-x-x-0-x-2-2-2-2-2-2-2-2-------------------------------------------|
A|-----------------0-0-0-0-0-0-0-0-------------------------------------------|
E|---------------------------------------------------------------------------|


[Chorus]

   this might take a while to figure out now            So don't you rush it and
e|-2-2-2-2-2-2-2-2---3-3-3-3-3-3-3-3------2-2-2-2-2-2-2-2--0-0-0-0-0-0-0-0---|
B|-3-3-3-3-3-3-3-3---3-3-3-3-3-3-3-3------3-3-3-3-3-3-3-3--2-2-2-2-2-2-2-2---|
G|-4-4-4-4-4-4-4-4---0-0-0-0-0-0-0-0------2-2-2-2-2-2-2-2--2-2-2-2-2-2-2-2---|
D|-4-4-4-4-4-4-4-4---0-0-0-0-0-0-0-0------0-0-0-0-0-0-0-0--2-2-2-2-2-2-2-2---|
A|-2-2-2-2-2-2-2-2---2-2-2-2-2-2-2-2-----------------------0-0-0-0-0-0-0-0---|
E|-------------------3-3-3-3-3-3-3-3-----------------------------------------|

   hold your head up high right through the doubt now  cause it's just a matter of    
e|-2-2-2-2-2-2-2-2---3-3-3-3-3-3-3-3------2-2-2-2-2-2-2-2--0-0-0-0-0-0-0-0---|
B|-3-3-3-3-3-3-3-3---3-3-3-3-3-3-3-3------3-3-3-3-3-3-3-3--2-2-2-2-2-2-2-2---|
G|-4-4-4-4-4-4-4-4---0-0-0-0-0-0-0-0------2-2-2-2-2-2-2-2--2-2-2-2-2-2-2-2---|
D|-4-4-4-4-4-4-4-4---0-0-0-0-0-0-0-0------0-0-0-0-0-0-0-0--2-2-2-2-2-2-2-2---|
A|-2-2-2-2-2-2-2-2---2-2-2-2-2-2-2-2-----------------------0-0-0-0-0-0-0-0---|
E|-------------------3-3-3-3-3-3-3-3-----------------------------------------|

          time       You've been running
e|-3-3-3-3-3-3-3-3-3-3-3-3-3-3-3-3-------------------------------------------|
B|-0-0-0-0-0-0-0-0-2-2-2-2-2-2-2-2-------------------------------------------|
G|-0-0-0-0-0-0-0-0-2-2-2-2-2-2-2-2-------------------------------------------|
D|-0-0-0-0-0-0-0-0-0-0-0-0-0-0-0-0-------------------------------------------|
A|-2-2-2-2-2-2-2-2-0-0-0-0-0-0-0-0-------------------------------------------|
E|-3-3-3-3-3-3-3-3-3-3-3-3-3-3-3-3-------------------------------------------|

so        fast       It's the seven
e|-3-3-3-3-3-3-3-3-3-3-3-3-3-3-3-3-------------------------------------------|
B|-0-0-0-0-0-0-0-0-2-2-2-2-2-2-2-2-------------------------------------------|
G|-0-0-0-0-0-0-0-0-2-2-2-2-2-2-2-2-------------------------------------------|
D|-0-0-0-0-0-0-0-0-0-0-0-0-0-0-0-0-------------------------------------------|
A|-2-2-2-2-2-2-2-2-0-0-0-0-0-0-0-0-------------------------------------------|
E|-3-3-3-3-3-3-3-3-3-3-3-3-3-3-3-3-------------------------------------------|

day       mile       Has you torn in
e|-3-3-3-3-3-3-3-3-3-3-3-3-3-3-3-3-------------------------------------------|
B|-0-0-0-0-0-0-0-0-2-2-2-2-2-2-2-2-------------------------------------------|
G|-0-0-0-0-0-0-0-0-2-2-2-2-2-2-2-2-------------------------------------------|
D|-0-0-0-0-0-0-0-0-0-0-0-0-0-0-0-0-------------------------------------------|
A|-2-2-2-2-2-2-2-2-0-0-0-0-0-0-0-0-------------------------------------------|
E|-3-3-3-3-3-3-3-3-3-3-3-3-3-3-3-3-------------------------------------------|

 between here and running away       running away
e|-2-2-2-2-2-2-2-2-0-0-0-0-0-0-0-0-------------------------------------------|
B|-3-3-3-3-3-3-3-3-2-2-2-2-2-2-2-2-------------------------------------------|
G|-2-2-2-2-2-2-2-2-2-2-2-2-2-2-2-2-------------------------------------------|
D|-0-0-0-0-0-0-0-0-2-2-2-2-2-2-2-2-------------------------------------------|
A|-----------------0-0-0-0-0-0-0-0-------------------------------------------|
E|---------------------------------------------------------------------------|

At this little break/interlude thing I just palm mute the top E and A strings of the G chord 
with some random strums of the whole chord thrown in there and it sounds about right.


[Verse]

         I don't         have a choice in this
e|---------------------------------------------------------------------------|
B|---------------------------------------------------------------------------|
G|---------------------------------------------------------------------------|
D|--2-x-x-4-x-x-2-x-x-x-x-4-x-2-2-2------------------------------------------|
A|--2-x-x-2-x-x-2-x-x-x-x-2-x-2-5-4------------------------------------------|
E|--3-x-x-3-x-x-3-x-x-x-x-3-x-3-3-3------------------------------------------|

         It's a          road I've come upon
e|---------------------------------------------------------------------------|
B|---------------------------------------------------------------------------|
G|---------------------------------------------------------------------------|
D|--2-x-x-4-x-x-2-x-x-x-x-4-x-2-2-2------------------------------------------|
A|--2-x-x-2-x-x-2-x-x-x-x-2-x-2-5-4------------------------------------------|
E|--3-x-x-3-x-x-3-x-x-x-x-3-x-3-3-3------------------------------------------|

         You can         join us if you want        to
e|----------------------------------2-x-x-2-x-x-2-x-0-x-x-0-x-0-0-0----------|
B|----------------------------------3-x-x-3-x-x-3-x-2-x-x-3-x-3-3-2----------|
G|----------------------------------2-x-x-2-x-x-2-x-2-x-x-2-x-2-2-2----------|
D|--2-x-x-4-x-x-2-x-x-x-x-4-x-2-2-2-0-x-x-0-x-x-0-x-2-x-x-2-x-2-2-2----------|
A|--2-x-x-2-x-x-2-x-x-x-x-2-x-2-5-4-----------------0-x-x-0-x-0-0-0----------|
E|--3-x-x-3-x-x-3-x-x-x-x-3-x-3-3-3------------------------------------------|

         Always          never seems to work
e|---------------------------------------------------------------------------|
B|---------------------------------------------------------------------------|
G|---------------------------------------------------------------------------|
D|--2-x-x-4-x-x-2-x-x-x-x-4-x-2-2-2------------------------------------------|
A|--2-x-x-2-x-x-2-x-x-x-x-2-x-2-5-4------------------------------------------|
E|--3-x-x-3-x-x-3-x-x-x-x-3-x-3-3-3------------------------------------------|

         It's a          word we never learned
e|---------------------------------------------------------------------------|
B|---------------------------------------------------------------------------|
G|---------------------------------------------------------------------------|
D|--2-x-x-4-x-x-2-x-x-x-x-4-x-2-2-2------------------------------------------|
A|--2-x-x-2-x-x-2-x-x-x-x-2-x-2-5-4------------------------------------------|
E|--3-x-x-3-x-x-3-x-x-x-x-3-x-3-3-3------------------------------------------|

         Time will       be the judge of all        here
e|----------------------------------2-x-x-2-x-x-2-x-0-x-x-0-x-0-0-0----------|
B|----------------------------------3-x-x-3-x-x-3-x-2-x-x-3-x-3-3-2----------|
G|----------------------------------2-x-x-2-x-x-2-x-2-x-x-2-x-2-2-2----------|
D|--2-x-x-4-x-x-2-x-x-x-x-4-x-2-2-2-0-x-x-0-x-x-0-x-2-x-x-2-x-2-2-2----------|
A|--2-x-x-2-x-x-2-x-x-x-x-2-x-2-5-4-----------------0-x-x-0-x-0-0-0----------|
E|--3-x-x-3-x-x-3-x-x-x-x-3-x-3-3-3------------------------------------------|


[Chorus]

   this might take a while to figure out now            So don't you rush it and
e|-2-2-2-2-2-2-2-2---3-3-3-3-3-3-3-3------2-2-2-2-2-2-2-2--0-0-0-0-0-0-0-0---|
B|-3-3-3-3-3-3-3-3---3-3-3-3-3-3-3-3------3-3-3-3-3-3-3-3--2-2-2-2-2-2-2-2---|
G|-4-4-4-4-4-4-4-4---0-0-0-0-0-0-0-0------2-2-2-2-2-2-2-2--2-2-2-2-2-2-2-2---|
D|-4-4-4-4-4-4-4-4---0-0-0-0-0-0-0-0------0-0-0-0-0-0-0-0--2-2-2-2-2-2-2-2---|
A|-2-2-2-2-2-2-2-2---2-2-2-2-2-2-2-2-----------------------0-0-0-0-0-0-0-0---|
E|-------------------3-3-3-3-3-3-3-3-----------------------------------------|

   hold your head up high right through the doubt now  cause it's just a matter of    
e|-2-2-2-2-2-2-2-2---3-3-3-3-3-3-3-3------2-2-2-2-2-2-2-2--0-0-0-0-0-0-0-0---|
B|-3-3-3-3-3-3-3-3---3-3-3-3-3-3-3-3------3-3-3-3-3-3-3-3--2-2-2-2-2-2-2-2---|
G|-4-4-4-4-4-4-4-4---0-0-0-0-0-0-0-0------2-2-2-2-2-2-2-2--2-2-2-2-2-2-2-2---|
D|-4-4-4-4-4-4-4-4---0-0-0-0-0-0-0-0------0-0-0-0-0-0-0-0--2-2-2-2-2-2-2-2---|
A|-2-2-2-2-2-2-2-2---2-2-2-2-2-2-2-2-----------------------0-0-0-0-0-0-0-0---|
E|-------------------3-3-3-3-3-3-3-3-----------------------------------------|

          time       You've been running
e|-3-3-3-3-3-3-3-3-3-3-3-3-3-3-3-3-------------------------------------------|
B|-0-0-0-0-0-0-0-0-2-2-2-2-2-2-2-2-------------------------------------------|
G|-0-0-0-0-0-0-0-0-2-2-2-2-2-2-2-2-------------------------------------------|
D|-0-0-0-0-0-0-0-0-0-0-0-0-0-0-0-0-------------------------------------------|
A|-2-2-2-2-2-2-2-2-0-0-0-0-0-0-0-0-------------------------------------------|
E|-3-3-3-3-3-3-3-3-3-3-3-3-3-3-3-3-------------------------------------------|

so        fast       It's the seven
e|-3-3-3-3-3-3-3-3-3-3-3-3-3-3-3-3-------------------------------------------|
B|-0-0-0-0-0-0-0-0-2-2-2-2-2-2-2-2-------------------------------------------|
G|-0-0-0-0-0-0-0-0-2-2-2-2-2-2-2-2-------------------------------------------|
D|-0-0-0-0-0-0-0-0-0-0-0-0-0-0-0-0-------------------------------------------|
A|-2-2-2-2-2-2-2-2-0-0-0-0-0-0-0-0-------------------------------------------|
E|-3-3-3-3-3-3-3-3-3-3-3-3-3-3-3-3-------------------------------------------|

day       mile       Has you torn in
e|-3-3-3-3-3-3-3-3-3-3-3-3-3-3-3-3-------------------------------------------|
B|-0-0-0-0-0-0-0-0-2-2-2-2-2-2-2-2-------------------------------------------|
G|-0-0-0-0-0-0-0-0-2-2-2-2-2-2-2-2-------------------------------------------|
D|-0-0-0-0-0-0-0-0-0-0-0-0-0-0-0-0-------------------------------------------|
A|-2-2-2-2-2-2-2-2-0-0-0-0-0-0-0-0-------------------------------------------|
E|-3-3-3-3-3-3-3-3-3-3-3-3-3-3-3-3-------------------------------------------|

 between here and running away   It's the   
e|-2-2-2-2-2-2-2-2-0-0-0-0-0-0-0-0-------------------------------------------|
B|-3-3-3-3-3-3-3-3-2-2-2-2-2-2-2-2-------------------------------------------|
G|-2-2-2-2-2-2-2-2-2-2-2-2-2-2-2-2-------------------------------------------|
D|-0-0-0-0-0-0-0-0-2-2-2-2-2-2-2-2-------------------------------------------|
A|-----------------0-0-0-0-0-0-0-0-------------------------------------------|
E|---------------------------------------------------------------------------|

          line       you've been wanting It's
e|-3-3-3-3-3-3-3-3-3-3-3-3-3-3-3-3-------------------------------------------|
B|-0-0-0-0-0-0-0-0-2-2-2-2-2-2-2-2-------------------------------------------|
G|-0-0-0-0-0-0-0-0-2-2-2-2-2-2-2-2-------------------------------------------|
D|-0-0-0-0-0-0-0-0-0-0-0-0-0-0-0-0-------------------------------------------|
A|-2-2-2-2-2-2-2-2-0-0-0-0-0-0-0-0-------------------------------------------|
E|-3-3-3-3-3-3-3-3-3-3-3-3-3-3-3-3-------------------------------------------|

   your   time       It's the seven
e|-3-3-3-3-3-3-3-3-3-3-3-3-3-3-3-3-------------------------------------------|
B|-0-0-0-0-0-0-0-0-2-2-2-2-2-2-2-2-------------------------------------------|
G|-0-0-0-0-0-0-0-0-2-2-2-2-2-2-2-2-------------------------------------------|
D|-0-0-0-0-0-0-0-0-0-0-0-0-0-0-0-0-------------------------------------------|
A|-2-2-2-2-2-2-2-2-0-0-0-0-0-0-0-0-------------------------------------------|
E|-3-3-3-3-3-3-3-3-3-3-3-3-3-3-3-3-------------------------------------------|

day       mile       Has you torn in
e|-3-3-3-3-3-3-3-3-3-3-3-3-3-3-3-3-------------------------------------------|
B|-0-0-0-0-0-0-0-0-2-2-2-2-2-2-2-2-------------------------------------------|
G|-0-0-0-0-0-0-0-0-2-2-2-2-2-2-2-2-------------------------------------------|
D|-0-0-0-0-0-0-0-0-0-0-0-0-0-0-0-0-------------------------------------------|
A|-2-2-2-2-2-2-2-2-0-0-0-0-0-0-0-0-------------------------------------------|
E|-3-3-3-3-3-3-3-3-3-3-3-3-3-3-3-3-------------------------------------------|

 between here and never again         never again
e|-2-2-2-2-2-2-2-2-0-0-0-0-0-0-0-0-------------------------------------------|
B|-3-3-3-3-3-3-3-3-2-2-2-2-2-2-2-2-------------------------------------------|
G|-2-2-2-2-2-2-2-2-2-2-2-2-2-2-2-2-------------------------------------------|
D|-0-0-0-0-0-0-0-0-2-2-2-2-2-2-2-2-------------------------------------------|
A|-----------------0-0-0-0-0-0-0-0-------------------------------------------|
E|---------------------------------------------------------------------------|            
Submit corrections

↑ Back to top | Tablatures and chords for acoustic guitar and electric guitar, ukulele, drums are parodies/interpretations of the original songs. You may use it for private study, scholarship, research or language learning purposes only