» » »

For Today - Instrumental Tabs

Artists:  A B C D E F G H I J K L M N O P Q R S T U V W X Y Z # 

Instrumental Tabs

(ver. 1) Click to play this song!
For Today
 Rating:
4.2/5 (5 votes)

 Instrumental lessons Tabs too difficult? Try these video lessons and learn fast
 
                ------------------------------------------------------------------------------------
------------------------------------------------------------------------------------


Tuning: CGCFAD


I'm not going to say this is 100%, because it probably isn't. However, I think it's pretty decent.
 
 Guitar 1, part 1

D|--7-----7--5-----5--8-----8--7-----7--7-----7--5-----5--8-----8--7---5---5-----5--3-----3|
A|-----0--------0--------0--------0--------0--------0--------0----------------0--------0---|
F|----0--------0--------0--------0--------0--------0--------0----------------0--------0----|
C|-----------------------------------------------------------------------------------------|
G|--7--------7--------7--------7--------5--------5--------5--------5---5---3--------3------|
C|-----------------------------------------------------------------------------------------|

D|--5-----5--3-----3--2-----2--3-----3--2-----2--3-----3|
A|-----0--------0--------0--------0--------0--------0---|
F|----0--------0--------0--------0--------0--------0----|   Part 1 repeats many times
C|------------------------------------------------------|
G|--3--------3--------2--------2--------2--------2------|
C|------------------------------------------------------|

  Guitar 2 (starting at 0:18)

D|----8h10p8-8--7--7h8p7-7-------------8h10p8-8--7--7-----------------8h10p8-8--7--7h8p7-7-|
A|--8----------------------8/10------8----------------10--8-8-------8----------------------|
F|-----------------------------------------------------------------------------------------|
C|-----------------------------------------------------------------------------------------|
G|-----------------------------------------------------------------------------------------|
C|-----------------------------------------------------------------------------------------|

D|--8h10p8-7-----7h8p7-----|
A|---------------------10--|
F|-------------------------|
C|-------------------------|
G|-------------------------|
C|-------------------------|

  Guitar 3 (starting at 0:35)

D|-----------------------------------------------------------------------------------------|
A|----10h12p10-10--8--8h10p8--------------10h12p10-10--8--8------------------10h12p10-10---|
F|----------------------------9/11--------------------------11--9-9------------------------|
C|--9-----------------------------------9----------------------------------9---------------|
G|-----------------------------------------------------------------------------------------|
C|-----------------------------------------------------------------------------------------|

D|-----------------------------|
A|--8--8h10p8-8--8--8----8-----|
F|--------------------------11-|
C|-----------------------------|
G|-----------------------------|
C|-----------------------------|

  Guitar 1, part 2 (starting at 0:50)

D|--10----10--7-----7--7-----7--3-----3-|
A|-----0---------0--------0--------0----|
F|----0---------0--------0--------0-----|    4 Times
C|--------------------------------------|
G|--7---------5--------7--------3-------|
C|--------------------------------------|

   At 1:40, it changes key to E. You can put a capo on the 2nd fret to play from there on.
   Obviously, you don't really need to tune the 6th string down to C since it isn't played.

************************************

| /   slide up
| \   slide down
| h   hammer-on
| p   pull-off
| ~   vibrato
| +   harmonic
| x   Mute note
| b   Bend
| pb  Pre-bend
| br  Bend release
| pbr Pre-bend release
| brb Bend release bend

************************************
            
Submit corrections


        Instrumental lessons Hard to play? Try these video lessons and learn fast Instrumental lessons
        
↑ Back to top | Tablatures and chords for acoustic guitar and electric guitar, ukulele, drums are parodies/interpretations of the original songs. You may use it for private study, scholarship, research or language learning purposes only