» » »

For Today - Ezekiel (The Visionary) Tabs

Artists:  A B C D E F G H I J K L M N O P Q R S T U V W X Y Z # 

Ezekiel (The Visionary) Tabs

(ver. 1) Click to play this song!
For Today
 Rating:
4/5 (4 votes)

 Ezekiel (The Visionary) lessons Tabs too difficult? Try these video lessons and learn fast
 
                covers and other bands. Heres my channel:


This song is in Drop C

INTRO
|-------------------------------------------------|
|-------------------------------------------------|
|-------------------------------------------------|
|-------------------------------------------------|
|-3-2-0-0---00--2-6-0--00-2-6-0-------------------|
|-3-2-0-0---00--2-6-0--00-2-6-0--00-0-000-000000--|


|-------------------------------------------------|
|-------5--5-6-8-6-5-6-5---------5h6p5------------|
|-----------------------7-4--4-7-------7-5-4h5p4--|
|-7-5-7-----------------------------------------7-|
|-7-5-7-------------------------------------------|
|-7-5-7-------------------------------------------|


|-5-7-8-7-5h7----8-8--10-10-----|
|-------------6-----9------9----|
|-------------------------------|
|-----------------------------7-|
|-----------------------------7-|
|-----------------------------7-|

this next part is all octaves. the timing is easy
so im just putting what you play
|----------------------------|
|----------------------------|
|-10-9---14--12-10-9--14--16-|
|-X--X---X---X--X--X--X---X--|
|-8--7--12--10--8--7-12--14--|
|----------------------------|


|-------------------------------------------|
|-------------------------------------------|
|-----------------------------------------7-|
|-------------------------------6----6-6h9--|
|----------------------------7h8--7h8-------|
|-000-000000--000000--000000----------------|

you do the same thing each time but you just end on

|----------------------------------|
|----------------------------------|
|--------------7-7-4---------------|
|----6----6-6h9-----6-3------------|
|-7h8--7h8-------------------------|
|-----------------------33-3-3-3-3-|

Then the whole breakdown alternates between open and this note
|-----
|-----
|-----
|-----
|-2---
|-3---


|---------------------|
|---------------------|
|---------------------|
|---------------------|
|-7-00-3-2--3-00-6-7--|
|-7-00-3-2--3-00-6-7--|


then it changes and the song ends playing this over and over
each note is strummed several times
|----------------------|
|----------------------|
|----------------------|
|----------------------|
|-7-3-5----------------|
|-7-3-5----------------|
            
Submit corrections


        Ezekiel (The Visionary) lessons Hard to play? Try these video lessons and learn fast Ezekiel (The Visionary) lessons
        
↑ Back to top | Tablatures and chords for acoustic guitar and electric guitar, ukulele, drums are parodies/interpretations of the original songs. You may use it for private study, scholarship, research or language learning purposes only