» » »

For The Fallen Dreams - Hopeless Tabs

Artists:  A B C D E F G H I J K L M N O P Q R S T U V W X Y Z # 

Hopeless Tabs

(ver. 1) Click to play this song!
For The Fallen Dreams
 Rating:
3.1/5 (7 votes)
                (Intro)
Hey this is my second for the fallen dreams tab.i havent completely finished this song 
its pretty close.play with the song to get the timing.its played in A#. if anyone 


|------------------------------|           Intro
|10-8------8-------------------|
|-----10-9---10-9--------------|
|-----------------10--8/7 8/7--|
|------------------------------|
|------------------------------|

|----------------------------------|          Riff 1 (x3 before end)
|----------------------------------|
|----------------------------------|
|1-1--000000---00000-----1-1-------|
|1-1--000000---00000-----1-1-------|
|1-1--000000-0-00000-0-0-1-1-------|
      ......   .....
|----------------------------------|           Riff 1 end
|----------------------------------|
|----------------------------------|
|7-----5-------1-1-1--1------------|
|3-X7--3--X7---1-1-1--1------------|
|3-----3-------0-0-0--0------------|
               . . .

|----------------------------|
|----------------------------|
|----------------------------|
|0---------------------------|
|0---------------------------|
|0---------------------------|               Break

|----------------------------8--------8------|
|-10-8-------10-8--------------10-------10---|
|------10-99------10-99----------------------|        Riff 2 (part 1)
|-----------------------8-88------8-88-------|
|--------------------------------------------|
|--------------------------------------------|

|------------------------------ 12------------12h13---|
|-10-8-------10-8------------------10-----------------|
|------10-99------10-99-------------------------------| Riff 2 (Part 2)
|-----------------------10-1010-------10-1010---------|
|-----------------------------------------------------|
|-----------------------------------------------------|

|----------------|
|----------------|
|----------------|
|-10-9-10-14-14--|           guitar break
|-x--x-x--x--x---|
|-8--7-8--12-12--|

|---------------------------------|
|-----------8---------------------|Riff 3 (part 1) Listen for rhythm
|10---------7---------------------|
|10---------7---------0000000-----|
|8-(x alot)-5-(X alot)0000000-----|
|8----------5---------0000000-0---|
                      .......
|------------------------------|
|------------------------------|
|------------------------------|
|0000000000000--10-9-10-14-14--|
|0000000000000--x--x-x--x--x---| X2      riff 3(part 2) listen for rhythm
|0000000000000--8--7-8--12-12--|
 .............

|---------------------------------------------------|
|---------------------------------------------------|
|---------------------------------------------------|
|------------------0-0-0----------------3-2-0-1-0---|
|------------------0-0-0--------------1-3-2-0-1-0---|
|--1b-0-0-0-0-0-0--0-0-0-1b-0-0-0-0-----3-2-0-1-0---| breakdown
                   . . .                . . . . .

|-------------------------------------------------------------|
|-------------------------------------------------------------|
|-------------------------------------------------------------|
|--0-0-0-0-0-0-0--0-0-0-0-----0-0-0-0--0-0-0-0----3-2-0-1-0---|
|--0-0-0-0-0-0-0--0-0-0-0-----0-0-0-0--0-0-0-0--1-3-2-0-1-0---|
|--1-0-0-0-0-0-0--0-0-0-0-1-0-0-0--0-0-0-0-0-0----3-2-0-1-0---|  chug
   .........................................................
            
Submit corrections

↑ Back to top | Tablatures and chords for acoustic guitar and electric guitar, ukulele, drums are parodies/interpretations of the original songs. You may use it for private study, scholarship, research or language learning purposes only