» » »

For King And Country - The Proof Of Your Love Tabs

Artists:  A B C D E F G H I J K L M N O P Q R S T U V W X Y Z # 

The Proof Of Your Love Tabs

(ver. 2) Click to play this song!
For King And Country
 Rating:
4.5/5 (22 votes)

 The Proof Of Your Love lessons Tabs too difficult? Try these video lessons and learn fast
 
                e|-16--16--16-16-15--15-15-15-13--13-13-12--12---------------------------------
B|------------------------------------------------------------------------------
G|------------------------------------------------------------------------------
D|------------------------------------------------------------------------------
A|------------------------------------------------------------------------------
E|------------------------------------------------------------------------------

e|-16--16--16-16-15--15-15-15-13--13-13-12--12---------------------------------
B|------------------------------------------------------------------------------
G|------------------------------------------------------------------------------
D|------------------------------------------------------------------------------
A|------------------------------------------------------------------------------
E|------------------------------------------------------------------------------

e|-16--16--16-16-15--15-15-15-13--13-13-12--12---------------------------------
B|------------------------------------------------------------------------------
G|------------------------------------------------------------------------------
D|------------------------------------------------------------------------------
A|------------------------------------------------------------------------------
E|------------------------------------------------------------------------------

e|-16--16--16-16-15--15-15-15-13--13-13-12--12---------------------------------
B|------------------------------------------------------------------------------
G|------------------------------------------------------------------------------
D|------------------------------------------------------------------------------
A|------------------------------------------------------------------------------
E|------------------------------------------------------------------------------            
Submit corrections


        The Proof Of Your Love lessons Hard to play? Try these video lessons and learn fast The Proof Of Your Love lessons
        
↑ Back to top | Tablatures and chords for acoustic guitar and electric guitar, ukulele, drums are parodies/interpretations of the original songs. You may use it for private study, scholarship, research or language learning purposes only